  0
SECTION
  2
HEADER
  9
$ACADVER
  1
AC1014
  9
$ACADMAINTVER
 70
     9
  9
$DWGCODEPAGE
  3
ANSI_1251
  9
$INSBASE
 10
0.0
 20
0.0
 30
0.0
  9
$EXTMIN
 10
0.0
 20
-0.0051265175231947
 30
0.0
  9
$EXTMAX
 10
4.761055303554214
 20
1.06254555976759
 30
0.0
  9
$LIMMIN
 10
0.0
 20
0.0
  9
$LIMMAX
 10
420.0
 20
297.0
  9
$ORTHOMODE
 70
     0
  9
$REGENMODE
 70
     1
  9
$FILLMODE
 70
     1
  9
$QTEXTMODE
 70
     0
  9
$MIRRTEXT
 70
     0
  9
$DRAGMODE
 70
     2
  9
$LTSCALE
 40
1.0
  9
$OSMODE
 70
   511
  9
$ATTMODE
 70
     0
  9
$TEXTSIZE
 40
1.0
  9
$TRACEWID
 40
15.68
  9
$TEXTSTYLE
  7
STANDARD
  9
$CLAYER
  8
0
  9
$CELTYPE
  6
BYLAYER
  9
$CECOLOR
 62
     5
  9
$CELTSCALE
 40
1.0
  9
$DELOBJ
 70
     1
  9
$DISPSILH
 70
     0
  9
$DIMSCALE
 40
1.0
  9
$DIMASZ
 40
1.0
  9
$DIMEXO
 40
0.025
  9
$DIMDLI
 40
3.75
  9
$DIMRND
 40
0.0
  9
$DIMDLE
 40
0.0
  9
$DIMEXE
 40
0.05
  9
$DIMTP
 40
0.0
  9
$DIMTM
 40
0.0
  9
$DIMTXT
 40
1.0
  9
$DIMCEN
 40
2.5
  9
$DIMTSZ
 40
0.0
  9
$DIMTOL
 70
     0
  9
$DIMLIM
 70
     0
  9
$DIMTIH
 70
     0
  9
$DIMTOH
 70
     0
  9
$DIMSE1
 70
     0
  9
$DIMSE2
 70
     0
  9
$DIMTAD
 70
     1
  9
$DIMZIN
 70
     8
  9
$DIMBLK
  1

  9
$DIMASO
 70
     1
  9
$DIMSHO
 70
     1
  9
$DIMPOST
  1

  9
$DIMAPOST
  1

  9
$DIMALT
 70
     0
  9
$DIMALTD
 70
     3
  9
$DIMALTF
 40
0.03937
  9
$DIMLFAC
 40
1.0
  9
$DIMTOFL
 70
     1
  9
$DIMTVP
 40
0.0
  9
$DIMTIX
 70
     0
  9
$DIMSOXD
 70
     0
  9
$DIMSAH
 70
     0
  9
$DIMBLK1
  1

  9
$DIMBLK2
  1

  9
$DIMSTYLE
  2
STANDARD
  9
$DIMCLRD
 70
     0
  9
$DIMCLRE
 70
     0
  9
$DIMCLRT
 70
     0
  9
$DIMTFAC
 40
1.0
  9
$DIMGAP
 40
0.025
  9
$DIMJUST
 70
     0
  9
$DIMSD1
 70
     0
  9
$DIMSD2
 70
     0
  9
$DIMTOLJ
 70
     0
  9
$DIMTZIN
 70
     8
  9
$DIMALTZ
 70
     0
  9
$DIMALTTZ
 70
     0
  9
$DIMFIT
 70
     5
  9
$DIMUPT
 70
     0
  9
$DIMUNIT
 70
     5
  9
$DIMDEC
 70
     4
  9
$DIMTDEC
 70
     2
  9
$DIMALTU
 70
     2
  9
$DIMALTTD
 70
     3
  9
$DIMTXSTY
  7
STANDARD
  9
$DIMAUNIT
 70
     0
  9
$LUNITS
 70
     5
  9
$LUPREC
 70
     4
  9
$SKETCHINC
 40
1.0
  9
$FILLETRAD
 40
0.0
  9
$AUNITS
 70
     0
  9
$AUPREC
 70
     2
  9
$MENU
  1
.
  9
$ELEVATION
 40
0.0
  9
$PELEVATION
 40
0.0
  9
$THICKNESS
 40
0.0
  9
$LIMCHECK
 70
     0
  9
$CHAMFERA
 40
0.0
  9
$CHAMFERB
 40
0.0
  9
$CHAMFERC
 40
0.0
  9
$CHAMFERD
 40
0.0
  9
$SKPOLY
 70
     0
  9
$TDCREATE
 40
2447893.083333322
  9
$TDUPDATE
 40
2457444.653746134
  9
$TDINDWG
 40
0.104316169
  9
$TDUSRTIMER
 40
2457444.569917477
  9
$USRTIMER
 70
     1
  9
$ANGBASE
 50
0.0
  9
$ANGDIR
 70
     0
  9
$PDMODE
 70
    34
  9
$PDSIZE
 40
0.0
  9
$PLINEWID
 40
0.0
  9
$COORDS
 70
     1
  9
$SPLFRAME
 70
     0
  9
$SPLINETYPE
 70
     6
  9
$SPLINESEGS
 70
     8
  9
$ATTDIA
 70
     0
  9
$ATTREQ
 70
     1
  9
$HANDLING
 70
     1
  9
$HANDSEED
  5
20AF5
  9
$SURFTAB1
 70
     6
  9
$SURFTAB2
 70
     6
  9
$SURFTYPE
 70
     6
  9
$SURFU
 70
     6
  9
$SURFV
 70
     6
  9
$UCSNAME
  2

  9
$UCSORG
 10
0.0
 20
0.0
 30
0.0
  9
$UCSXDIR
 10
1.0
 20
0.0
 30
0.0
  9
$UCSYDIR
 10
0.0
 20
1.0
 30
0.0
  9
$PUCSNAME
  2

  9
$PUCSORG
 10
0.0
 20
0.0
 30
0.0
  9
$PUCSXDIR
 10
1.0
 20
0.0
 30
0.0
  9
$PUCSYDIR
 10
0.0
 20
1.0
 30
0.0
  9
$USERI1
 70
     0
  9
$USERI2
 70
     0
  9
$USERI3
 70
     0
  9
$USERI4
 70
     0
  9
$USERI5
 70
     0
  9
$USERR1
 40
0.0
  9
$USERR2
 40
0.0
  9
$USERR3
 40
0.0
  9
$USERR4
 40
0.0
  9
$USERR5
 40
0.0
  9
$WORLDVIEW
 70
     1
  9
$SHADEDGE
 70
     3
  9
$SHADEDIF
 70
    70
  9
$TILEMODE
 70
     0
  9
$MAXACTVP
 70
    64
  9
$PINSBASE
 10
0.0
 20
0.0
 30
0.0
  9
$PLIMCHECK
 70
     0
  9
$PEXTMIN
 10
127.835296551724
 20
59.95273525626394
 30
0.0
  9
$PEXTMAX
 10
550.0153089501035
 20
166.5985448373343
 30
0.0
  9
$PLIMMIN
 10
122.0470288044333
 20
21.87790795799292
  9
$PLIMMAX
 10
446.1900226527158
 20
251.093310750707
  9
$UNITMODE
 70
     0
  9
$VISRETAIN
 70
     1
  9
$PLINEGEN
 70
     0
  9
$PSLTSCALE
 70
     1
  9
$TREEDEPTH
 70
  3020
  9
$PICKSTYLE
 70
     1
  9
$CMLSTYLE
  2
STANDARD
  9
$CMLJUST
 70
     0
  9
$CMLSCALE
 40
20.0
  9
$PROXYGRAPHICS
 70
     1
  9
$MEASUREMENT
 70
     1
  0
ENDSEC
  0
SECTION
  2
CLASSES
  0
CLASS
  1
SCALE
  2
AcDbScale
  3
ObjectDBX Classes
 90
     1153
280
     0
281
     0
  0
CLASS
  1
MATERIAL
  2
AcDbMaterial
  3
ObjectDBX Classes
 90
     1153
280
     0
281
     0
  0
CLASS
  1
VISUALSTYLE
  2
AcDbVisualStyle
  3
ObjectDBX Classes
 90
     4095
280
     0
281
     0
  0
CLASS
  1
TABLESTYLE
  2
AcDbTableStyle
  3
ObjectDBX Classes
 90
     4095
280
     0
281
     0
  0
CLASS
  1
SUN
  2
AcDbSun
  3
SCENEOE
 90
     1153
280
     0
281
     0
  0
CLASS
  1
RASTERVARIABLES
  2
AcDbRasterVariables
  3
ISM
 90
        0
280
     0
281
     0
  0
CLASS
  1
ACDBDICTIONARYWDFLT
  2
AcDbDictionaryWithDefault
  3
ObjectDBX Classes
 90
        0
280
     0
281
     0
  0
CLASS
  1
DICTIONARYVAR
  2
AcDbDictionaryVar
  3
ObjectDBX Classes
 90
        0
280
     0
281
     0
  0
CLASS
  1
XRECORD
  2
AcDbXrecord
  3
ObjectDBX Classes
 90
        0
280
     0
281
     0
  0
CLASS
  1
LWPOLYLINE
  2
AcDbPolyline
  3
ObjectDBX Classes
 90
        0
280
     0
281
     1
  0
CLASS
  1
HATCH
  2
AcDbHatch
  3
ObjectDBX Classes
 90
        0
280
     0
281
     1
  0
CLASS
  1
IMAGEDEF
  2
AcDbRasterImageDef
  3
ISM
 90
        0
280
     0
281
     0
  0
CLASS
  1
IMAGE
  2
AcDbRasterImage
  3
ISM
 90
      127
280
     0
281
     1
  0
CLASS
  1
IMAGEDEF_REACTOR
  2
AcDbRasterImageDefReactor
  3
ISM
 90
        1
280
     0
281
     0
  0
CLASS
  1
DIMASSOC
  2
AcDbDimAssoc
  3
"AcDbDimAssoc|Product Desc:     AcDim ARX App For Dimension|Company:          Autodesk, Inc.|WEB Address:      www.autodesk.com"
 90
        0
280
     0
281
     0
  0
CLASS
  1
MLEADERSTYLE
  2
AcDbMLeaderStyle
  3
ACDB_MLEADERSTYLE_CLASS
 90
     4095
280
     0
281
     0
  0
ENDSEC
  0
SECTION
  2
TABLES
  0
TABLE
  2
VPORT
  5
8
330
0
100
AcDbSymbolTable
 70
     1
  0
VPORT
  5
31
330
8
100
AcDbSymbolTableRecord
100
AcDbViewportTableRecord
  2
*ACTIVE
 70
     0
 10
0.0
 20
0.0
 11
1.0
 21
1.0
 12
3.424822367274384
 22
0.3174942587773656
 13
0.0
 23
0.0
 14
10.0
 24
10.0
 15
10.0
 25
10.0
 16
0.0
 26
0.0
 36
1.0
 17
0.0
 27
0.0
 37
0.0
 40
2.256157350466616
 41
2.194827586206896
 42
50.0
 43
0.0
 44
0.0
 50
0.0
 51
0.0
 71
    16
 72
   100
 73
     1
 74
     3
 75
     0
 76
     0
 77
     0
 78
     0
  0
ENDTAB
  0
TABLE
  2
LTYPE
  5
5
330
0
100
AcDbSymbolTable
 70
    25
  0
LTYPE
  5
14
330
5
100
AcDbSymbolTableRecord
100
AcDbLinetypeTableRecord
  2
BYBLOCK
 70
     0
  3

 72
    65
 73
     0
 40
0.0
  0
LTYPE
  5
15
330
5
100
AcDbSymbolTableRecord
100
AcDbLinetypeTableRecord
  2
BYLAYER
 70
     0
  3

 72
    65
 73
     0
 40
0.0
  0
LTYPE
  5
16
330
5
100
AcDbSymbolTableRecord
100
AcDbLinetypeTableRecord
  2
CONTINUOUS
 70
     0
  3
Solid line
 72
    65
 73
     0
 40
0.0
  0
LTYPE
  5
32
330
5
100
AcDbSymbolTableRecord
100
AcDbLinetypeTableRecord
  2
DOT
 70
     0
  3
Dot . . . . . . . . . . . . . . . . . . . . . .
 72
    65
 73
     2
 40
6.35
 49
0.0
 74
     0
 49
-6.35
 74
     0
  0
LTYPE
  5
33
330
5
100
AcDbSymbolTableRecord
100
AcDbLinetypeTableRecord
  2
DOTTINY
 70
     0
  3
Dot (.15x) .....................................
 72
    65
 73
     2
 40
0.9525
 49
0.0
 74
     0
 49
-0.9525
 74
     0
  0
LTYPE
  5
34
330
5
100
AcDbSymbolTableRecord
100
AcDbLinetypeTableRecord
  2
DOT2
 70
     0
  3
Dot (.5x) .....................................
 72
    65
 73
     2
 40
3.175
 49
0.0
 74
     0
 49
-3.175
 74
     0
  0
LTYPE
  5
35
330
5
100
AcDbSymbolTableRecord
100
AcDbLinetypeTableRecord
  2
DOTX2
 70
     0
  3
Dot (2x) .  .  .  .  .  .  .  .  .  .  .  .  .
 72
    65
 73
     2
 40
12.7
 49
0.0
 74
     0
 49
-12.7
 74
     0
  0
LTYPE
  5
36
330
5
100
AcDbSymbolTableRecord
100
AcDbLinetypeTableRecord
  2
DASHED
 70
     0
  3
Dashed _ _ _ _ _ _ _ _ _ _ _ _ _ _ _ _ _
 72
    65
 73
     2
 40
19.05
 49
12.7
 74
     0
 49
-6.35
 74
     0
  0
LTYPE
  5
37
330
5
100
AcDbSymbolTableRecord
100
AcDbLinetypeTableRecord
  2
DASHEDTINY
 70
     0
  3
Dashed (.15x) _ _ _ _ _ _ _ _ _ _ _ _ _ _ _ _ _
 72
    65
 73
     2
 40
2.8575
 49
1.905
 74
     0
 49
-0.9525
 74
     0
  0
LTYPE
  5
38
330
5
100
AcDbSymbolTableRecord
100
AcDbLinetypeTableRecord
  2
DASHED2
 70
     0
  3
Dashed (.5x) _ _ _ _ _ _ _ _ _ _ _ _ _ _ _ _ _
 72
    65
 73
     2
 40
9.524999999999999
 49
6.35
 74
     0
 49
-3.175
 74
     0
  0
LTYPE
  5
39
330
5
100
AcDbSymbolTableRecord
100
AcDbLinetypeTableRecord
  2
DASHEDX2
 70
     0
  3
Dashed (2x) ____  ____  ____  ____  ____  ___
 72
    65
 73
     2
 40
38.09999999999999
 49
25.4
 74
     0
 49
-12.7
 74
     0
  0
LTYPE
  5
3A
330
5
100
AcDbSymbolTableRecord
100
AcDbLinetypeTableRecord
  2
DASHDOT
 70
     0
  3
Dash dot __ . __ . __ . __ . __ . __ . __ . __
 72
    65
 73
     4
 40
25.4
 49
12.7
 74
     0
 49
-6.35
 74
     0
 49
0.0
 74
     0
 49
-6.35
 74
     0
  0
LTYPE
  5
3B
330
5
100
AcDbSymbolTableRecord
100
AcDbLinetypeTableRecord
  2
DASHDOTTINY
 70
     0
  3
Dash dot (.15x) _._._._._._._._._._._._._._._.
 72
    65
 73
     4
 40
3.81
 49
1.905
 74
     0
 49
-0.9525
 74
     0
 49
0.0
 74
     0
 49
-0.9525
 74
     0
  0
LTYPE
  5
3C
330
5
100
AcDbSymbolTableRecord
100
AcDbLinetypeTableRecord
  2
DASHDOT2
 70
     0
  3
Dash dot (.5x) _._._._._._._._._._._._._._._.
 72
    65
 73
     4
 40
12.7
 49
6.35
 74
     0
 49
-3.175
 74
     0
 49
0.0
 74
     0
 49
-3.175
 74
     0
  0
LTYPE
  5
3D
330
5
100
AcDbSymbolTableRecord
100
AcDbLinetypeTableRecord
  2
DASHDOTX2
 70
     0
  3
Dash dot (2x) ____  .  ____  .  ____  .  ___
 72
    65
 73
     4
 40
50.8
 49
25.4
 74
     0
 49
-12.7
 74
     0
 49
0.0
 74
     0
 49
-12.7
 74
     0
  0
LTYPE
  5
3E
330
5
100
AcDbSymbolTableRecord
100
AcDbLinetypeTableRecord
  2
DIVIDE
 70
     0
  3
Divide ____ . . ____ . . ____ . . ____ . . ____
 72
    65
 73
     6
 40
31.75
 49
12.7
 74
     0
 49
-6.35
 74
     0
 49
0.0
 74
     0
 49
-6.35
 74
     0
 49
0.0
 74
     0
 49
-6.35
 74
     0
  0
LTYPE
  5
3F
330
5
100
AcDbSymbolTableRecord
100
AcDbLinetypeTableRecord
  2
DIVIDETINY
 70
     0
  3
Divide (.15x) __..__..__..__..__..__..__..__.._
 72
    65
 73
     6
 40
4.7625
 49
1.905
 74
     0
 49
-0.9525
 74
     0
 49
0.0
 74
     0
 49
-0.9525
 74
     0
 49
0.0
 74
     0
 49
-0.9525
 74
     0
  0
LTYPE
  5
40
330
5
100
AcDbSymbolTableRecord
100
AcDbLinetypeTableRecord
  2
DIVIDE2
 70
     0
  3
Divide (.5x) __..__..__..__..__..__..__..__.._
 72
    65
 73
     6
 40
15.875
 49
6.35
 74
     0
 49
-3.175
 74
     0
 49
0.0
 74
     0
 49
-3.175
 74
     0
 49
0.0
 74
     0
 49
-3.175
 74
     0
  0
LTYPE
  5
41
330
5
100
AcDbSymbolTableRecord
100
AcDbLinetypeTableRecord
  2
DIVIDEX2
 70
     0
  3
Divide (2x) ________  .  .  ________  .  .  _
 72
    65
 73
     6
 40
63.5
 49
25.4
 74
     0
 49
-12.7
 74
     0
 49
0.0
 74
     0
 49
-12.7
 74
     0
 49
0.0
 74
     0
 49
-12.7
 74
     0
  0
LTYPE
  5
42
330
5
100
AcDbSymbolTableRecord
100
AcDbLinetypeTableRecord
  2
BORDER
 70
     0
  3
Border __ __ . __ __ . __ __ . __ __ . __ __ .
 72
    65
 73
     6
 40
44.45
 49
12.7
 74
     0
 49
-6.35
 74
     0
 49
12.7
 74
     0
 49
-6.35
 74
     0
 49
0.0
 74
     0
 49
-6.35
 74
     0
  0
LTYPE
  5
43
330
5
100
AcDbSymbolTableRecord
100
AcDbLinetypeTableRecord
  2
BORDERTINY
 70
     0
  3
Border (.15x) __.__.__.__.__.__.__.__.__.__.__.
 72
    65
 73
     6
 40
6.6675
 49
1.905
 74
     0
 49
-0.9525
 74
     0
 49
1.905
 74
     0
 49
-0.9525
 74
     0
 49
0.0
 74
     0
 49
-0.9525
 74
     0
  0
LTYPE
  5
44
330
5
100
AcDbSymbolTableRecord
100
AcDbLinetypeTableRecord
  2
BORDER2
 70
     0
  3
Border (.5x) __.__.__.__.__.__.__.__.__.__.__.
 72
    65
 73
     6
 40
22.225
 49
6.35
 74
     0
 49
-3.175
 74
     0
 49
6.35
 74
     0
 49
-3.175
 74
     0
 49
0.0
 74
     0
 49
-3.175
 74
     0
  0
LTYPE
  5
45
330
5
100
AcDbSymbolTableRecord
100
AcDbLinetypeTableRecord
  2
BORDERX2
 70
     0
  3
Border (2x) ____  ____  .  ____  ____  .  ___
 72
    65
 73
     6
 40
88.89999999999999
 49
25.4
 74
     0
 49
-12.7
 74
     0
 49
25.4
 74
     0
 49
-12.7
 74
     0
 49
0.0
 74
     0
 49
-12.7
 74
     0
  0
LTYPE
  5
46
330
5
100
AcDbSymbolTableRecord
100
AcDbLinetypeTableRecord
  2
CENTER
 70
     0
  3
Center ____ _ ____ _ ____ _ ____ _ ____ _ ____
 72
    65
 73
     4
 40
50.8
 49
31.75
 74
     0
 49
-6.35
 74
     0
 49
6.35
 74
     0
 49
-6.35
 74
     0
  0
LTYPE
  5
47
330
5
100
AcDbSymbolTableRecord
100
AcDbLinetypeTableRecord
  2
CENTERTINY
 70
     0
  3
Center (.15x) ___ _ ___ _ ___ _ ___ _ ___ _ ___
 72
    65
 73
     4
 40
7.619999999999999
 49
4.7625
 74
     0
 49
-0.9525
 74
     0
 49
0.9525
 74
     0
 49
-0.9525
 74
     0
  0
LTYPE
  5
48
330
5
100
AcDbSymbolTableRecord
100
AcDbLinetypeTableRecord
  2
CENTER2
 70
     0
  3
Center (.5x) ___ _ ___ _ ___ _ ___ _ ___ _ ___
 72
    65
 73
     4
 40
28.575
 49
19.05
 74
     0
 49
-3.175
 74
     0
 49
3.175
 74
     0
 49
-3.175
 74
     0
  0
LTYPE
  5
49
330
5
100
AcDbSymbolTableRecord
100
AcDbLinetypeTableRecord
  2
CENTERX2
 70
     0
  3
Center (2x) ________  __  ________  __  _____
 72
    65
 73
     4
 40
101.6
 49
63.5
 74
     0
 49
-12.7
 74
     0
 49
12.7
 74
     0
 49
-12.7
 74
     0
  0
ENDTAB
  0
TABLE
  2
LAYER
  5
2
330
0
100
AcDbSymbolTable
 70
     2
  0
LAYER
  5
10
330
2
100
AcDbSymbolTableRecord
100
AcDbLayerTableRecord
  2
0
 70
     0
 62
     7
  6
CONTINUOUS
  0
LAYER
  5
202FA
330
2
100
AcDbSymbolTableRecord
100
AcDbLayerTableRecord
  2
DEFPOINTS
 70
     0
 62
     7
  6
CONTINUOUS
  0
ENDTAB
  0
TABLE
  2
STYLE
  5
3
330
0
100
AcDbSymbolTable
 70
     1
  0
STYLE
  5
4A
330
3
100
AcDbSymbolTableRecord
100
AcDbTextStyleTableRecord
  2
STANDARD
 70
     0
 40
0.125
 41
1.0
 50
0.0
 71
     0
 42
1.0
  3
arial.ttf
  4

1001
ACAD
1000
Arial
1071
        0
  0
ENDTAB
  0
TABLE
  2
VIEW
  5
6
330
0
100
AcDbSymbolTable
 70
     0
  0
ENDTAB
  0
TABLE
  2
UCS
  5
7
330
0
100
AcDbSymbolTable
 70
     0
  0
ENDTAB
  0
TABLE
  2
APPID
  5
9
330
0
100
AcDbSymbolTable
 70
     2
  0
APPID
  5
12
330
9
100
AcDbSymbolTableRecord
100
AcDbRegAppTableRecord
  2
ACAD
 70
     0
  0
APPID
  5
4B
330
9
100
AcDbSymbolTableRecord
100
AcDbRegAppTableRecord
  2
LIBRECAD
 70
     0
  0
ENDTAB
  0
TABLE
  2
DIMSTYLE
  5
A
330
0
100
AcDbSymbolTable
 70
     2
  0
DIMSTYLE
105
4C
330
A
100
AcDbSymbolTableRecord
100
AcDbDimStyleTableRecord
  2
STANDARD
 70
     0
  3

  4

  5

  6

  7

 40
1.0
 41
1.0
 42
0.025
 43
0.38
 44
0.05
 45
0.0
 46
0.0
 47
0.0
 48
0.0
140
1.0
141
0.09
142
0.0
143
25.4
144
1.0
145
0.0
146
1.0
147
0.025
 71
     0
 72
     0
 73
     0
 74
     1
 75
     0
 76
     0
 77
     0
 78
     8
170
     0
171
     2
172
     0
173
     0
174
     0
175
     0
176
     0
177
     0
178
     0
270
     5
271
     4
272
     4
273
     2
274
     2
340
0
275
     0
280
     0
281
     0
282
     0
283
     1
284
     0
285
     0
286
     0
287
     3
288
     0
  0
DIMSTYLE
105
20063
330
A
100
AcDbSymbolTableRecord
100
AcDbDimStyleTableRecord
  2
THREE_QUARTER_INCH_SCALE
 70
     0
  3
"
  4

  5
ARCHTICK
  6

  7

 40
1.0
 41
0.75
 42
1.5
 43
2.0
 44
1.0
 45
0.0
 46
0.0
 47
0.0
 48
0.0
140
1.5
141
2.0
142
0.0
143
25.4
144
1.0
145
0.0
146
1.0
147
1.0
 71
     0
 72
     0
 73
     0
 74
     0
 75
     0
 76
     0
 77
     1
 78
     0
170
     0
171
     2
172
     0
173
     0
174
     1
175
     0
176
     0
177
     0
178
     0
270
     2
271
     4
272
     4
273
     2
274
     2
340
4A
275
     0
280
     0
281
     0
282
     0
283
     1
284
     0
285
     0
286
     0
287
     3
288
     0
  0
ENDTAB
  0
TABLE
  2
BLOCK_RECORD
  5
1
330
0
100
AcDbSymbolTable
 70
    17
  0
BLOCK_RECORD
  5
1F
330
1
100
AcDbSymbolTableRecord
100
AcDbBlockTableRecord
  2
*MODEL_SPACE
  0
BLOCK_RECORD
  5
1E
330
1
100
AcDbSymbolTableRecord
100
AcDbBlockTableRecord
  2
*PAPER_SPACE
  0
BLOCK_RECORD
  5
20065
330
1
100
AcDbSymbolTableRecord
100
AcDbBlockTableRecord
  2
_ARCHTICK
  0
BLOCK_RECORD
  5
20094
330
1
100
AcDbSymbolTableRecord
100
AcDbBlockTableRecord
  2
GH070
  0
BLOCK_RECORD
  5
200B3
330
1
100
AcDbSymbolTableRecord
100
AcDbBlockTableRecord
  2
TEXT
  0
BLOCK_RECORD
  5
2016E
330
1
100
AcDbSymbolTableRecord
100
AcDbBlockTableRecord
  2
GH300
  0
BLOCK_RECORD
  5
20312
330
1
100
AcDbSymbolTableRecord
100
AcDbBlockTableRecord
  2
GH201
  0
BLOCK_RECORD
  5
20392
330
1
100
AcDbSymbolTableRecord
100
AcDbBlockTableRecord
  2
GH850
  0
BLOCK_RECORD
  5
20414
330
1
100
AcDbSymbolTableRecord
100
AcDbBlockTableRecord
  2
GH100
  0
BLOCK_RECORD
  5
204AD
330
1
100
AcDbSymbolTableRecord
100
AcDbBlockTableRecord
  2
GH400
  0
BLOCK_RECORD
  5
20515
330
1
100
AcDbSymbolTableRecord
100
AcDbBlockTableRecord
  2
GH800
  0
BLOCK_RECORD
  5
2057D
330
1
100
AcDbSymbolTableRecord
100
AcDbBlockTableRecord
  2
GH500
  0
BLOCK_RECORD
  5
205F7
330
1
100
AcDbSymbolTableRecord
100
AcDbBlockTableRecord
  2
GH700
  0
BLOCK_RECORD
  5
2069A
330
1
100
AcDbSymbolTableRecord
100
AcDbBlockTableRecord
  2
GH540
  0
BLOCK_RECORD
  5
207AB
330
1
100
AcDbSymbolTableRecord
100
AcDbBlockTableRecord
  2
GH060
  0
BLOCK_RECORD
  5
2085B
330
1
100
AcDbSymbolTableRecord
100
AcDbBlockTableRecord
  2
*D13
  0
BLOCK_RECORD
  5
208B7
330
1
100
AcDbSymbolTableRecord
100
AcDbBlockTableRecord
  2
*D14
  0
BLOCK_RECORD
  5
2090E
330
1
100
AcDbSymbolTableRecord
100
AcDbBlockTableRecord
  2
HG680
  0
BLOCK_RECORD
  5
20A80
330
1
100
AcDbSymbolTableRecord
100
AcDbBlockTableRecord
  2
A$C17835
  0
ENDTAB
  0
ENDSEC
  0
SECTION
  2
BLOCKS
  0
BLOCK
  5
20
330
1F
100
AcDbEntity
  8
0
100
AcDbBlockBegin
  2
*MODEL_SPACE
 70
     0
 10
0.0
 20
0.0
 30
0.0
  3
*MODEL_SPACE
  1

  0
ENDBLK
  5
21
330
1F
100
AcDbEntity
  8
0
100
AcDbBlockEnd
  0
BLOCK
  5
1C
330
1E
100
AcDbEntity
 67
     1
  8
0
100
AcDbBlockBegin
  2
*PAPER_SPACE
 70
     0
 10
0.0
 20
0.0
 30
0.0
  3
*PAPER_SPACE
  1

  0
ENDBLK
  5
1D
330
1E
100
AcDbEntity
 67
     1
  8
0
100
AcDbBlockEnd
  0
BLOCK
  5
20066
330
20065
100
AcDbEntity
  8
0
100
AcDbBlockBegin
  2
_ARCHTICK
 70
     0
 10
0.0
 20
0.0
 30
0.0
  3
_ARCHTICK
  1
_ARCHTICK
  0
LWPOLYLINE
  5
20067
330
20065
100
AcDbEntity
  8
0
  6
BYBLOCK
 62
     0
100
AcDbPolyline
 90
        2
 70
     0
 43
0.15
 10
-0.5
 20
-0.5
 10
0.5
 20
0.5
  0
ENDBLK
  5
20068
330
20065
100
AcDbEntity
  8
0
100
AcDbBlockEnd
  0
BLOCK
  5
200A0
330
20094
100
AcDbEntity
  8
0
100
AcDbBlockBegin
  2
GH070
 70
     0
 10
0.0
 20
0.0
 30
0.0
  3
GH070
  1
GH070
  0
LINE
  5
20095
330
20094
100
AcDbEntity
  8
0
 62
     0
100
AcDbLine
 10
-0.0000000000000002
 20
0.000044031856177
 30
0.0
 11
-0.0000000000000002
 21
1.500044031856177
 31
0.0
  0
LINE
  5
20096
330
20094
100
AcDbEntity
  8
0
 62
     0
100
AcDbLine
 10
0.7499999999999998
 20
0.0000440318561767
 30
0.0
 11
0.7499999999999998
 21
0.7500440318561767
 31
0.0
  0
LINE
  5
20097
330
20094
100
AcDbEntity
  8
0
 62
     0
100
AcDbLine
 10
1.25
 20
0.7500440318561767
 30
0.0
 11
0.7499999999999998
 21
0.7500440318561767
 31
0.0
  0
LINE
  5
20098
330
20094
100
AcDbEntity
  8
0
 62
     0
100
AcDbLine
 10
0.7499999999999998
 20
0.0000440318561767
 30
0.0
 11
-0.0000000000000002
 21
0.000044031856177
 31
0.0
  0
LINE
  5
20099
330
20094
100
AcDbEntity
  8
0
 62
     0
100
AcDbLine
 10
1.25
 20
0.7500440318561767
 30
0.0
 11
1.25
 21
0.914020192101886
 31
0.0
  0
LINE
  5
2009A
330
20094
100
AcDbEntity
  8
0
 62
     0
100
AcDbLine
 10
0.5654246168820103
 20
1.500044031856177
 30
0.0
 11
-0.0000000000000002
 21
1.500044031856177
 31
0.0
  0
LINE
  5
2009B
330
20094
100
AcDbEntity
  8
0
 62
     0
100
AcDbLine
 10
0.5966746466843328
 20
1.37985092112939
 30
0.0
 11
0.5966746466843328
 21
1.468794002053855
 31
0.0
  0
ARC
  5
2009C
330
20094
100
AcDbEntity
  8
0
 62
     0
100
AcDbCircle
 10
0.7750099496043317
 20
1.266577904310832
 30
0.0
 40
0.2112682101186666
100
AcDbArc
 50
38.16410794094814
 51
147.577561648865
  0
ARC
  5
2009D
330
20094
100
AcDbEntity
  8
0
 62
     0
100
AcDbCircle
 10
0.3148368756712878
 20
1.031738726915941
 30
0.0
 40
0.7250757226475516
100
AcDbArc
 50
6.243646316154902
 51
30.26014535800208
  0
ARC
  5
2009E
330
20094
100
AcDbEntity
  8
0
 62
     0
100
AcDbCircle
 10
1.248899299308056
 20
1.128015077769722
 30
0.0
 40
0.2139977164224046
100
AcDbArc
 50
184.6690791076244
 51
270.2947030617309
  0
ARC
  5
2009F
330
20094
100
AcDbEntity
  8
0
 62
     0
100
AcDbCircle
 10
0.5654246317831718
 20
1.468794016955016
 30
0.0
 40
0.0312500149011646
100
AcDbArc
 50
359.9999726792565
 51
90.00002732074427
  0
ENDBLK
  5
200A1
330
20094
100
AcDbEntity
  8
0
100
AcDbBlockEnd
  0
BLOCK
  5
200B5
330
200B3
100
AcDbEntity
  8
0
100
AcDbBlockBegin
  2
TEXT
 70
     0
 10
0.0
 20
0.0
 30
0.0
  3
TEXT
  1
TEXT
  0
MTEXT
  5
209EE
330
200B3
100
AcDbEntity
  8
0
100
AcDbMText
 10
0.9357137313670374
 20
0.4833997264342566
 30
0.0
 40
0.0625
 41
1.27361721478624
 71
     1
 72
     5
  1
{\C0;Standard Flooring & Nosing\PGH 680\P1 1/16" x 3 1/2"\PGeneral Hardwood\PCompany}
1001
ACAD
1000
ACAD_MTEXT_DEFINED_HEIGHT_BEGIN
1070
    46
1040
0.4833541666666668
1000
ACAD_MTEXT_DEFINED_HEIGHT_END
  0
ENDBLK
  5
200B6
330
200B3
100
AcDbEntity
  8
0
100
AcDbBlockEnd
  0
BLOCK
  5
2016F
330
2016E
100
AcDbEntity
  8
0
100
AcDbBlockBegin
  2
GH300
 70
     0
 10
0.0
 20
0.0
 30
0.0
  3
GH300
  1
GH300
  0
LINE
  5
20170
330
2016E
100
AcDbEntity
  8
0
  6
BYBLOCK
 62
     0
100
AcDbLine
 10
3.123361159229148
 20
3.188206027586848
 30
0.0
 11
2.334091542641669
 21
3.188206027586848
 31
0.0
  0
LINE
  5
20171
330
2016E
100
AcDbEntity
  8
0
  6
BYBLOCK
 62
     0
100
AcDbLine
 10
1.389400389767488
 20
1.313206027586848
 30
0.0
 11
1.099835478466069
 21
1.313206027586848
 31
0.0
  0
LINE
  5
20172
330
2016E
100
AcDbEntity
  8
0
  6
BYBLOCK
 62
     0
100
AcDbLine
 10
1.060861159229148
 20
1.27887888547469
 30
0.0
 11
1.060861159229148
 21
0.5495619788836485
 31
0.0
  0
LINE
  5
20173
330
2016E
100
AcDbEntity
  8
0
  6
BYBLOCK
 62
     0
100
AcDbLine
 10
0.2949340344829494
 20
0.0183546365325675
 30
0.0
 11
0.2949340344829494
 21
0.1078773879509889
 31
0.0
  0
LINE
  5
20174
330
2016E
100
AcDbEntity
  8
0
  6
BYBLOCK
 62
     0
100
AcDbLine
 10
0.6083037670269391
 20
0.3133697325439897
 30
0.0
 11
0.6291573281486187
 21
0.3133697325439897
 31
0.0
  0
LINE
  5
20175
330
2016E
100
AcDbEntity
  8
0
  6
BYBLOCK
 62
     0
100
AcDbLine
 10
1.49481739689076
 20
1.610180250025358
 30
0.0
 11
1.43652645799833
 21
1.351883743546537
 31
0.0
  0
LINE
  5
20176
330
2016E
100
AcDbEntity
  8
0
  6
BYBLOCK
 62
     0
100
AcDbLine
 10
0.0
 20
0.0
 30
0.0
 11
0.0
 21
0.8541144849451889
 31
0.0
  0
LINE
  5
20177
330
2016E
100
AcDbEntity
  8
0
  6
BYBLOCK
 62
     0
100
AcDbLine
 10
0.0
 20
0.0
 30
0.0
 11
0.2769700479440402
 21
0.0
 31
0.0
  0
LINE
  5
20178
330
2016E
100
AcDbEntity
  8
0
  6
BYBLOCK
 62
     0
100
AcDbLine
 10
0.3303944316414587
 20
0.1257060275868476
 30
0.0
 11
0.31293428694093
 21
0.1257060275868476
 31
0.0
  0
LINE
  5
20179
330
2016E
100
AcDbEntity
  8
0
  6
BYBLOCK
 62
     0
100
AcDbLine
 10
2.890689999700299
 20
2.858538091658787
 30
0.0
 11
2.890689999700299
 21
2.836028454595567
 31
0.0
  0
LINE
  5
2017A
330
2016E
100
AcDbEntity
  8
0
  6
BYBLOCK
 62
     0
100
AcDbLine
 10
3.05312180718051
 20
2.875706027586848
 30
0.0
 11
2.90494716419736
 21
2.875706027586848
 31
0.0
  0
LINE
  5
2017B
330
2016E
100
AcDbEntity
  8
0
  6
BYBLOCK
 62
     0
100
AcDbLine
 10
3.123361159229148
 20
3.188206027586848
 30
0.0
 11
3.123361159229148
 21
2.948144162314229
 31
0.0
  0
ARC
  5
2017C
330
2016E
100
AcDbEntity
  8
0
  6
BYBLOCK
 62
     0
100
AcDbCircle
 10
3.048392848159541
 20
2.950564166982652
 30
0.0
 40
0.0750073602203441
100
AcDbArc
 50
273.6147014465819
 51
358.1511131687512
  0
ARC
  5
2017D
330
2016E
100
AcDbEntity
  8
0
  6
BYBLOCK
 62
     0
100
AcDbCircle
 10
2.907124896436958
 20
2.859393602510988
 30
0.0
 40
0.0164571482816116
100
AcDbArc
 50
97.60410672867435
 51
182.979815466513
  0
ARC
  5
2017E
330
2016E
100
AcDbEntity
  8
0
  6
BYBLOCK
 62
     0
100
AcDbCircle
 10
2.802413325177444
 20
2.835197090011015
 30
0.0
 40
0.088280589213526
100
AcDbArc
 50
280.1797878556739
 51
0.5395793849295409
  0
ARC
  5
2017F
330
2016E
100
AcDbEntity
  8
0
  6
BYBLOCK
 62
     0
100
AcDbCircle
 10
2.876199634641562
 20
2.045847890971668
 30
0.0
 40
0.7048638518857987
100
AcDbArc
 50
94.73493512905837
 51
168.3480839173799
  0
ARC
  5
20180
330
2016E
100
AcDbEntity
  8
0
  6
BYBLOCK
 62
     0
100
AcDbCircle
 10
1.516251163344442
 20
2.305229355890361
 30
0.0
 40
0.6797587851259779
100
AcDbArc
 50
269.8402974233537
 51
350.0869076549527
  0
ARC
  5
20181
330
2016E
100
AcDbEntity
  8
0
  6
BYBLOCK
 62
     0
100
AcDbCircle
 10
1.388255443547973
 20
1.362649816486712
 30
0.0
 40
0.0494570436097855
100
AcDbArc
 50
271.326533945521
 51
347.4268823353337
  0
ARC
  5
20182
330
2016E
100
AcDbEntity
  8
0
  6
BYBLOCK
 62
     0
100
AcDbCircle
 10
1.101017927563433
 20
1.272574615078632
 30
0.0
 40
0.0406486145923781
100
AcDbArc
 50
91.6669424533053
 51
171.0778744868593
  0
ARC
  5
20183
330
2016E
100
AcDbEntity
  8
0
  6
BYBLOCK
 62
     0
100
AcDbCircle
 10
0.9412277205718489
 20
0.5581421629663019
 30
0.0
 40
0.1199407320465561
100
AcDbArc
 50
269.4983772836481
 51
355.8977355032912
  0
LINE
  5
20184
330
2016E
100
AcDbEntity
  8
0
  6
BYBLOCK
 62
     0
100
AcDbLine
 10
0.7713990666827009
 20
0.4382060275868405
 30
0.0
 11
0.9401776567151039
 21
0.4382060275868405
 31
0.0
  0
ARC
  5
20185
330
2016E
100
AcDbEntity
  8
0
  6
BYBLOCK
 62
     0
100
AcDbCircle
 10
0.7736641787188212
 20
0.4116999592485691
 30
0.0
 40
0.0266026763933467
100
AcDbArc
 50
94.8844216829498
 51
172.1095051541148
  0
ARC
  5
20186
330
2016E
100
AcDbEntity
  8
0
  6
BYBLOCK
 62
     0
100
AcDbCircle
 10
0.6197872400676658
 20
0.4436644389083106
 30
0.0
 40
0.1306311948089452
100
AcDbArc
 50
274.1133202704497
 51
347.4826163588629
  0
ARC
  5
20187
330
2016E
100
AcDbEntity
  8
0
  6
BYBLOCK
 62
     0
100
AcDbCircle
 10
0.6044973248686354
 20
0.1567825593955625
 30
0.0
 40
0.1566334312862921
100
AcDbArc
 50
88.60748410480431
 51
155.5147097430315
  0
ARC
  5
20188
330
2016E
100
AcDbEntity
  8
0
  6
BYBLOCK
 62
     0
100
AcDbCircle
 10
0.3261436683669814
 20
0.2696741209637104
 30
0.0
 40
0.1440308331538332
100
AcDbArc
 50
271.6912084705137
 51
340.5443678682
  0
ARC
  5
20189
330
2016E
100
AcDbEntity
  8
0
  6
BYBLOCK
 62
     0
100
AcDbCircle
 10
0.3137033653071128
 20
0.1069284679133595
 30
0.0
 40
0.0187933027651955
100
AcDbArc
 50
92.34537023788742
 51
177.1057646060847
  0
ARC
  5
2018A
330
2016E
100
AcDbEntity
  8
0
  6
BYBLOCK
 62
     0
100
AcDbCircle
 10
0.2772028857212518
 20
0.0177402615428015
 30
0.0
 40
0.017741789454214
100
AcDbArc
 50
269.2480462607928
 51
1.984474737027347
  0
LINE
  5
2018B
330
2016E
100
AcDbEntity
  8
0
  6
BYBLOCK
 62
     0
100
AcDbLine
 10
0.0
 20
0.8541144849451889
 30
0.0
 11
2.334091542641669
 21
3.188206027586848
 31
0.0
  0
ARC
  5
2018C
330
2016E
100
AcDbEntity
  8
0
  6
BYBLOCK
 62
     0
100
AcDbCircle
 10
1.526985389661614
 20
1.589209328953704
 30
0.0
 40
0.0383999907486873
100
AcDbArc
 50
109.2007325653641
 51
146.8989120477313
  0
ENDBLK
  5
2018D
330
2016E
100
AcDbEntity
  8
0
100
AcDbBlockEnd
  0
BLOCK
  5
20326
330
20312
100
AcDbEntity
  8
0
100
AcDbBlockBegin
  2
GH201
 70
     0
 10
0.0
 20
0.0
 30
0.0
  3
GH201
  1
GH201
  0
LINE
  5
20313
330
20312
100
AcDbEntity
  8
0
 62
     0
100
AcDbLine
 10
6.895761460521322
 20
0.3829664625452298
 30
0.0
 11
7.895761460521322
 21
0.3829664625452298
 31
0.0
  0
LINE
  5
20314
330
20312
100
AcDbEntity
  8
0
 62
     0
100
AcDbLine
 10
6.895761460521322
 20
3.32046646254523
 30
0.0
 11
6.895761460521322
 21
4.82046646254523
 31
0.0
  0
LINE
  5
20315
330
20312
100
AcDbEntity
  8
0
 62
     0
100
AcDbLine
 10
6.895761460521322
 20
1.50796646254523
 30
0.0
 11
6.958261460521322
 21
1.57046646254523
 31
0.0
  0
LINE
  5
20316
330
20312
100
AcDbEntity
  8
0
 62
     0
100
AcDbLine
 10
6.895761460521322
 20
4.82046646254523
 30
0.0
 11
7.254508976949555
 21
4.82046646254523
 31
0.0
  0
LINE
  5
20317
330
20312
100
AcDbEntity
  8
0
 62
     0
100
AcDbLine
 10
6.958261460521322
 20
1.57046646254523
 30
0.0
 11
6.958261460521322
 21
3.25796646254523
 31
0.0
  0
ARC
  5
20318
330
20312
100
AcDbEntity
  8
0
 62
     0
100
AcDbCircle
 10
8.542939067456793
 20
2.941701983965185
 30
0.0
 40
1.018893354276599
100
AcDbArc
 50
193.9711253351572
 51
223.4202580476711
  0
ARC
  5
20319
330
20312
100
AcDbEntity
  8
0
 62
     0
100
AcDbCircle
 10
7.7338803765453
 20
1.670303585616591
 30
0.0
 40
0.1665555262386978
100
AcDbArc
 50
13.60642378221336
 51
69.36290795073059
  0
ARC
  5
2031A
330
20312
100
AcDbEntity
  8
0
 62
     0
100
AcDbCircle
 10
7.694192417588754
 20
4.752529208530898
 30
0.0
 40
0.4449011108722162
100
AcDbArc
 50
171.2164605886613
 51
232.853834229074
  0
ARC
  5
2031B
330
20312
100
AcDbEntity
  8
0
 62
     0
100
AcDbCircle
 10
7.443166872590824
 20
4.106563666421794
 30
0.0
 40
0.0175851814201532
100
AcDbArc
 50
145.1919795799768
 51
251.5663697938671
  0
ARC
  5
2031C
330
20312
100
AcDbEntity
  8
0
 62
     0
100
AcDbCircle
 10
7.517748840522474
 20
2.058320482085157
 30
0.0
 40
0.3388362359030222
100
AcDbArc
 50
322.0874317582364
 51
32.69957843498423
  0
ARC
  5
2031D
330
20312
100
AcDbEntity
  8
0
 62
     0
100
AcDbCircle
 10
7.459588732568639
 20
2.888725544497846
 30
0.0
 40
0.2149529413583375
100
AcDbArc
 50
296.1095438910968
 51
75.46928286686054
  0
LINE
  5
2031E
330
20312
100
AcDbEntity
  8
0
 62
     0
100
AcDbLine
 10
6.895761460521322
 20
0.3829664625452298
 30
0.0
 11
6.895761460521322
 21
1.50796646254523
 31
0.0
  0
ARC
  5
2031F
330
20312
100
AcDbEntity
  8
0
 62
     0
100
AcDbCircle
 10
7.404109570746167
 20
3.985457885305197
 30
0.0
 40
0.1096639051934174
100
AcDbArc
 50
356.1052817101993
 51
72.21480305377985
  0
ARC
  5
20320
330
20312
100
AcDbEntity
  8
0
 62
     0
100
AcDbCircle
 10
7.273734621689787
 20
4.255511352557287
 30
0.0
 40
0.208131886591804
100
AcDbArc
 50
318.1324228750425
 51
43.16683377592364
  0
LINE
  5
20321
330
20312
100
AcDbEntity
  8
0
 62
     0
100
AcDbLine
 10
7.51352021202685
 20
3.978009148712968
 30
0.0
 11
7.51352021202685
 21
3.09680284388932
 31
0.0
  0
LINE
  5
20322
330
20312
100
AcDbEntity
  8
0
 62
     0
100
AcDbLine
 10
7.895761460521322
 20
0.3829664625452298
 30
0.0
 11
7.895761460521322
 21
1.709485953735398
 31
0.0
  0
LINE
  5
20323
330
20312
100
AcDbEntity
  8
0
 62
     0
100
AcDbLine
 10
6.895761460521322
 20
3.32046646254523
 30
0.0
 11
6.958261460521322
 21
3.25796646254523
 31
0.0
  0
ARC
  5
20324
330
20312
100
AcDbEntity
  8
0
 62
     0
100
AcDbCircle
 10
7.799476498817635
 20
1.841484492588354
 30
0.0
 40
0.0167933113590797
100
AcDbArc
 50
149.0554492655746
 51
245.7623331337322
  0
ARC
  5
20325
330
20312
100
AcDbEntity
  8
0
 62
     0
100
AcDbCircle
 10
7.7338803765453
 20
1.670303585616591
 30
0.0
 40
0.1665555262386978
100
AcDbArc
 50
345.9189345708754
 51
346.3935762177866
  0
ENDBLK
  5
20327
330
20312
100
AcDbEntity
  8
0
100
AcDbBlockEnd
  0
BLOCK
  5
203AB
330
20392
100
AcDbEntity
  8
0
100
AcDbBlockBegin
  2
GH850
 70
     0
 10
0.0
 20
0.0
 30
0.0
  3
GH850
  1
GH850
  0
LINE
  5
20393
330
20392
100
AcDbEntity
  8
0
 62
     0
100
AcDbLine
 10
5.313957025032798
 20
2.114592327626687
 30
0.0
 11
5.284456516360678
 21
2.243856586877424
 31
0.0
  0
LINE
  5
20394
330
20392
100
AcDbEntity
  8
0
 62
     0
100
AcDbLine
 10
4.594037180752311
 20
0.8820758935319098
 30
0.0
 11
4.594037180752311
 21
3.564451224527615
 31
0.0
  0
LINE
  5
20395
330
20392
100
AcDbEntity
  8
0
 62
     0
100
AcDbLine
 10
5.344037180752311
 20
0.8820758935319066
 30
0.0
 11
5.344037180752311
 21
1.308710417534322
 31
0.0
  0
LINE
  5
20396
330
20392
100
AcDbEntity
  8
0
 62
     0
100
AcDbLine
 10
4.881001772708731
 20
1.126951224527615
 30
0.0
 11
4.881001772708731
 21
0.8820758935319066
 31
0.0
  0
LINE
  5
20397
330
20392
100
AcDbEntity
  8
0
 62
     0
100
AcDbLine
 10
4.881001772708731
 20
1.126951224527615
 30
0.0
 11
5.086337829979275
 21
1.126951224527615
 31
0.0
  0
LINE
  5
20398
330
20392
100
AcDbEntity
  8
0
 62
     0
100
AcDbLine
 10
4.991713008961738
 20
1.582542483658477
 30
0.0
 11
4.991713008961738
 21
1.448167854876002
 31
0.0
  0
LINE
  5
20399
330
20392
100
AcDbEntity
  8
0
 62
     0
100
AcDbLine
 10
4.664710464835516
 20
0.8144512245276152
 30
0.0
 11
4.810328488625527
 21
0.8144512245276152
 31
0.0
  0
LINE
  5
2039A
330
20392
100
AcDbEntity
  8
0
 62
     0
100
AcDbLine
 10
5.086337829979275
 20
1.126951224527615
 30
0.0
 11
5.086337829979275
 21
0.8820758935319098
 31
0.0
  0
LINE
  5
2039B
330
20392
100
AcDbEntity
  8
0
 62
     0
100
AcDbLine
 10
4.844037180752311
 20
3.500790986788867
 30
0.0
 11
4.844037180752311
 21
3.315161979677769
 31
0.0
  0
LINE
  5
2039C
330
20392
100
AcDbEntity
  8
0
 62
     0
100
AcDbLine
 10
4.844037180752311
 20
3.315161979677769
 30
0.0
 11
4.929516814432771
 21
3.315161979677769
 31
0.0
  0
LINE
  5
2039D
330
20392
100
AcDbEntity
  8
0
 62
     0
100
AcDbLine
 10
4.974002614734693
 20
3.255732646582289
 30
0.0
 11
4.974002614734693
 21
3.067685714495737
 31
0.0
  0
ARC
  5
2039E
330
20392
100
AcDbEntity
  8
0
 62
     0
100
AcDbCircle
 10
4.775561267176895
 20
3.495828188153439
 30
0.0
 40
0.0686555176972951
100
AcDbArc
 50
4.145269577801561
 51
88.23748067793143
  0
LINE
  5
2039F
330
20392
100
AcDbEntity
  8
0
 62
     0
100
AcDbLine
 10
4.594037180752311
 20
3.564451224527615
 30
0.0
 11
4.777672899027405
 21
3.564451224527615
 31
0.0
  0
ARC
  5
203A0
330
20392
100
AcDbEntity
  8
0
 62
     0
100
AcDbCircle
 10
4.919781267674423
 20
3.261509861217393
 30
0.0
 40
0.0545282558493324
100
AcDbArc
 50
353.9181542636692
 51
79.71519267772702
  0
ARC
  5
203A1
330
20392
100
AcDbEntity
  8
0
 62
     0
100
AcDbCircle
 10
5.698329176102353
 20
3.07607952000694
 30
0.0
 40
0.7243751952363215
100
AcDbArc
 50
180.6639382413307
 51
216.5494171078471
  0
ARC
  5
203A2
330
20392
100
AcDbEntity
  8
0
 62
     0
100
AcDbCircle
 10
4.164354248503306
 20
2.00991756236783
 30
0.0
 40
1.144271190604626
100
AcDbArc
 50
11.79693513264901
 51
33.6935319896332
  0
LINE
  5
203A3
330
20392
100
AcDbEntity
  8
0
 62
     0
100
AcDbLine
 10
5.344037180752311
 20
1.308710417534322
 30
0.0
 11
5.204579743410632
 21
1.448167854876002
 31
0.0
  0
ARC
  5
203A4
330
20392
100
AcDbEntity
  8
0
 62
     0
100
AcDbCircle
 10
4.894263476313084
 20
2.005175160830142
 30
0.0
 40
0.4337220206845974
100
AcDbArc
 50
282.9841795465684
 51
14.6121682597576
  0
LINE
  5
203A5
330
20392
100
AcDbEntity
  8
0
 62
     0
100
AcDbLine
 10
4.991713008961738
 20
1.448167854876002
 30
0.0
 11
5.204579743410632
 21
1.448167854876002
 31
0.0
  0
ARC
  5
203A6
330
20392
100
AcDbEntity
  8
0
 62
     0
100
AcDbCircle
 10
5.273244291788369
 20
0.885318223372854
 30
0.0
 40
0.0708670997759791
100
AcDbArc
 50
270.0967001351884
 51
357.3776732909305
  0
ARC
  5
203A7
330
20392
100
AcDbEntity
  8
0
 62
     0
100
AcDbCircle
 10
4.664830069716254
 20
0.8853182233728549
 30
0.0
 40
0.0708670997759799
100
AcDbArc
 50
182.6223267090676
 51
269.9032998648108
  0
ARC
  5
203A8
330
20392
100
AcDbEntity
  8
0
 62
     0
100
AcDbCircle
 10
4.810208883744789
 20
0.885318223372854
 30
0.0
 40
0.0708670997759791
100
AcDbArc
 50
270.0967001351884
 51
357.3776732909305
  0
ARC
  5
203A9
330
20392
100
AcDbEntity
  8
0
 62
     0
100
AcDbCircle
 10
5.157130718943218
 20
0.8853182233728549
 30
0.0
 40
0.0708670997759799
100
AcDbArc
 50
182.6223267090676
 51
269.9032998648108
  0
LINE
  5
203AA
330
20392
100
AcDbEntity
  8
0
 62
     0
100
AcDbLine
 10
5.15701111406248
 20
0.8144512245276152
 30
0.0
 11
5.273363896669107
 21
0.8144512245276152
 31
0.0
  0
ENDBLK
  5
203AC
330
20392
100
AcDbEntity
  8
0
100
AcDbBlockEnd
  0
BLOCK
  5
20427
330
20414
100
AcDbEntity
  8
0
100
AcDbBlockBegin
  2
GH100
 70
     0
 10
0.0
 20
0.0
 30
0.0
  3
GH100
  1
GH100
  0
LINE
  5
20415
330
20414
100
AcDbEntity
  8
0
  6
BYBLOCK
 62
     0
100
AcDbLine
 10
5.611332214039963
 20
-0.1386975872860543
 30
0.0
 11
6.736332214039963
 21
-0.1386975872860547
 31
0.0
  0
LINE
  5
20416
330
20414
100
AcDbEntity
  8
0
  6
BYBLOCK
 62
     0
100
AcDbLine
 10
5.611332214039963
 20
0.3398879725095947
 30
0.0
 11
5.611332214039963
 21
-0.1386975872860541
 31
0.0
  0
LINE
  5
20417
330
20414
100
AcDbEntity
  8
0
  6
BYBLOCK
 62
     0
100
AcDbLine
 10
5.611332214039963
 20
0.3398879725095952
 30
0.0
 11
5.739419734401761
 21
0.4679754928713941
 31
0.0
  0
LINE
  5
20418
330
20414
100
AcDbEntity
  8
0
  6
BYBLOCK
 62
     0
100
AcDbLine
 10
5.611332214039964
 20
3.423802412713946
 30
0.0
 11
5.744559566876942
 21
3.423802412713946
 31
0.0
  0
LINE
  5
20419
330
20414
100
AcDbEntity
  8
0
  6
BYBLOCK
 62
     0
100
AcDbLine
 10
6.072107126582533
 20
3.130095266030923
 30
0.0
 11
6.072107126582533
 21
3.018650407231753
 31
0.0
  0
LINE
  5
2041A
330
20414
100
AcDbEntity
  8
0
  6
BYBLOCK
 62
     0
100
AcDbLine
 10
5.611332214039964
 20
3.423802412713946
 30
0.0
 11
5.611332214039964
 21
2.878003282559518
 31
0.0
  0
LINE
  5
2041B
330
20414
100
AcDbEntity
  8
0
  6
BYBLOCK
 62
     0
100
AcDbLine
 10
5.956343281934791
 20
3.199408656565403
 30
0.0
 11
5.998072759177478
 21
3.199408656565403
 31
0.0
  0
ARC
  5
2041C
330
20414
100
AcDbEntity
  8
0
  6
BYBLOCK
 62
     0
100
AcDbCircle
 10
5.968859208968252
 20
3.311055850725539
 30
0.0
 40
0.1123465370776431
100
AcDbArc
 50
227.7553913292559
 51
263.6037059820222
  0
LINE
  5
2041D
330
20414
100
AcDbEntity
  8
0
  6
BYBLOCK
 62
     0
100
AcDbLine
 10
6.736332214039964
 20
-0.1386975872860545
 30
0.0
 11
6.736332214039964
 21
0.3212992512078136
 31
0.0
  0
ARC
  5
2041E
330
20414
100
AcDbEntity
  8
0
  6
BYBLOCK
 62
     0
100
AcDbCircle
 10
5.994007427922026
 20
3.12087129144679
 30
0.0
 40
0.0786425116459968
100
AcDbArc
 50
6.735722327539187
 51
87.03684199676779
  0
LINE
  5
2041F
330
20414
100
AcDbEntity
  8
0
  6
BYBLOCK
 62
     0
100
AcDbLine
 10
5.744559566876942
 20
3.423802412713946
 30
0.0
 11
5.893328951990676
 21
3.227887799923326
 31
0.0
  0
LINE
  5
20420
330
20414
100
AcDbEntity
  8
0
  6
BYBLOCK
 62
     0
100
AcDbLine
 10
6.485727411487658
 20
0.5374198083066615
 30
0.0
 11
6.485727411487658
 21
0.3212992512078135
 31
0.0
  0
LINE
  5
20421
330
20414
100
AcDbEntity
  8
0
  6
BYBLOCK
 62
     0
100
AcDbLine
 10
5.736332214039964
 20
2.753003282559518
 30
0.0
 11
5.736332214039963
 21
0.4648879725095951
 31
0.0
  0
LINE
  5
20422
330
20414
100
AcDbEntity
  8
0
  6
BYBLOCK
 62
     0
100
AcDbLine
 10
6.485727411487658
 20
0.3212992512078136
 30
0.0
 11
6.736332214039964
 21
0.3212992512078136
 31
0.0
  0
ARC
  5
20423
330
20414
100
AcDbEntity
  8
0
  6
BYBLOCK
 62
     0
100
AcDbCircle
 10
5.540997266429388
 20
1.253587186297033
 30
0.0
 40
1.185500215216945
100
AcDbArc
 50
322.8354874504303
 51
62.89836797342138
  0
ARC
  5
20424
330
20414
100
AcDbEntity
  8
0
  6
BYBLOCK
 62
     0
100
AcDbCircle
 10
6.046121042985168
 20
2.720139572444094
 30
0.0
 40
0.2996397754410365
100
AcDbArc
 50
276.6991675174457
 51
85.0248073136456
  0
LINE
  5
20425
330
20414
100
AcDbEntity
  8
0
  6
BYBLOCK
 62
     0
100
AcDbLine
 10
6.081075912544402
 20
2.422545634131413
 30
0.0
 11
6.081075912544402
 21
2.308919274452225
 31
0.0
  0
LINE
  5
20426
330
20414
100
AcDbEntity
  8
0
  6
BYBLOCK
 62
     0
100
AcDbLine
 10
5.611332214039964
 20
2.878003282559518
 30
0.0
 11
5.736332214039964
 21
2.753003282559518
 31
0.0
  0
ENDBLK
  5
20428
330
20414
100
AcDbEntity
  8
0
100
AcDbBlockEnd
  0
BLOCK
  5
204AF
330
204AD
100
AcDbEntity
  8
0
100
AcDbBlockBegin
  2
GH400
 70
     0
 10
0.0
 20
0.0
 30
0.0
  3
GH400
  1
GH400
  0
LINE
  5
204B1
330
204AD
100
AcDbEntity
  8
0
 62
     0
100
AcDbLine
 10
4.531026033670155
 20
1.217080400337904
 30
0.0
 11
4.973378789509442
 21
1.217080400337904
 31
0.0
  0
LINE
  5
204B2
330
204AD
100
AcDbEntity
  8
0
 62
     0
100
AcDbLine
 10
4.531026033670155
 20
4.717080400337904
 30
0.0
 11
4.880954763419453
 21
4.717080400337904
 31
0.0
  0
LINE
  5
204B3
330
204AD
100
AcDbEntity
  8
0
 62
     0
100
AcDbLine
 10
4.531026033670155
 20
3.797480942503325
 30
0.0
 11
4.531026033670155
 21
4.717080400337904
 31
0.0
  0
LINE
  5
204B4
330
204AD
100
AcDbEntity
  8
0
 62
     0
100
AcDbLine
 10
5.22685674264535
 20
4.305837319154164
 30
0.0
 11
5.22685674264535
 21
4.158473979066269
 31
0.0
  0
LINE
  5
204B5
330
204AD
100
AcDbEntity
  8
0
 62
     0
100
AcDbLine
 10
4.656026033670155
 20
2.283860154691817
 30
0.0
 11
4.656026033670155
 21
3.672480942503325
 31
0.0
  0
ARC
  5
204B6
330
204AD
100
AcDbEntity
  8
0
 62
     0
100
AcDbCircle
 10
4.928668220604713
 20
1.735187886734623
 30
0.0
 40
0.1852745540063723
100
AcDbArc
 50
283.9644971030017
 51
85.43972451538157
  0
ARC
  5
204B7
330
204AD
100
AcDbEntity
  8
0
 62
     0
100
AcDbCircle
 10
5.439591044375556
 20
2.698208031141436
 30
0.0
 40
0.3912430761757884
100
AcDbArc
 50
123.0518440922462
 51
175.9205587515036
  0
LINE
  5
204B8
330
204AD
100
AcDbEntity
  8
0
 62
     0
100
AcDbLine
 10
4.531026033670155
 20
1.217080400337904
 30
0.0
 11
4.531026033670155
 21
2.158860154691818
 31
0.0
  0
LINE
  5
204B9
330
204AD
100
AcDbEntity
  8
0
 62
     0
100
AcDbLine
 10
5.226207977099444
 20
3.210609629437638
 30
0.0
 11
5.226207977099444
 21
3.026139138624901
 31
0.0
  0
ARC
  5
204BA
330
204AD
100
AcDbEntity
  8
0
 62
     0
100
AcDbCircle
 10
5.307160639683882
 20
4.724474884937806
 30
0.0
 40
0.4262700169667438
100
AcDbArc
 50
180.993956866841
 51
259.141310786343
  0
LINE
  5
204BB
330
204AD
100
AcDbEntity
  8
0
 62
     0
100
AcDbLine
 10
5.049339232110366
 20
2.726040883658366
 30
0.0
 11
5.049339232110366
 21
2.1020428138946
 31
0.0
  0
ARC
  5
204BC
330
204AD
100
AcDbEntity
  8
0
 62
     0
100
AcDbCircle
 10
5.009971496486083
 20
3.684690029287331
 30
0.0
 40
0.5210666378398229
100
AcDbArc
 50
294.5185703011725
 51
65.40299754366963
  0
ARC
  5
204BD
330
204AD
100
AcDbEntity
  8
0
 62
     0
100
AcDbCircle
 10
4.903466223289999
 20
2.122546387082373
 30
0.0
 40
0.1473069286074941
100
AcDbArc
 50
285.7288705688446
 51
351.9990529569604
  0
LINE
  5
204BE
330
204AD
100
AcDbEntity
  8
0
 62
     0
100
AcDbLine
 10
4.973378789509442
 20
1.555389039712525
 30
0.0
 11
4.973378789509442
 21
1.217080400337904
 31
0.0
  0
LINE
  5
204BF
330
204AD
100
AcDbEntity
  8
0
 62
     0
100
AcDbLine
 10
4.943398995531969
 20
1.980755326303337
 30
0.0
 11
4.943398995531969
 21
1.919875906466014
 31
0.0
  0
LINE
  5
204C0
330
204AD
100
AcDbEntity
  8
0
 62
     0
100
AcDbLine
 10
4.656026033670155
 20
2.283860154691817
 30
0.0
 11
4.531026033670155
 21
2.158860154691818
 31
0.0
  0
LINE
  5
204C1
330
204AD
100
AcDbEntity
  8
0
 62
     0
100
AcDbLine
 10
4.656026033670155
 20
3.672480942503325
 30
0.0
 11
4.531026033670155
 21
3.797480942503326
 31
0.0
  0
ENDBLK
  5
204B0
330
204AD
100
AcDbEntity
  8
0
100
AcDbBlockEnd
  0
BLOCK
  5
2051E
330
20515
100
AcDbEntity
  8
0
100
AcDbBlockBegin
  2
GH800
 70
     0
 10
0.0
 20
0.0
 30
0.0
  3
GH800
  1
GH800
  0
LINE
  5
20516
330
20515
100
AcDbEntity
  8
0
 62
     0
100
AcDbLine
 10
3.907932159628445
 20
5.927153193667753
 30
0.0
 11
2.657932159628444
 21
5.927153193667753
 31
0.0
  0
LINE
  5
20517
330
20515
100
AcDbEntity
  8
0
 62
     0
100
AcDbLine
 10
4.032932159628445
 20
0.5521531936677526
 30
0.0
 11
4.032932159628445
 21
5.802153193667753
 31
0.0
  0
ARC
  5
20518
330
20515
100
AcDbEntity
  8
0
 62
     0
100
AcDbCircle
 10
2.657932159628444
 20
5.802153193667753
 30
0.0
 40
0.125
100
AcDbArc
 50
90.0
 51
180.0
  0
ARC
  5
20519
330
20515
100
AcDbEntity
  8
0
 62
     0
100
AcDbCircle
 10
3.907932159628445
 20
5.802153193667753
 30
0.0
 40
0.125
100
AcDbArc
 50
0.0
 51
90.0
  0
LINE
  5
2051A
330
20515
100
AcDbEntity
  8
0
 62
     0
100
AcDbLine
 10
2.657932159628444
 20
0.4271531936677524
 30
0.0
 11
3.907932159628445
 21
0.4271531936677524
 31
0.0
  0
LINE
  5
2051B
330
20515
100
AcDbEntity
  8
0
 62
     0
100
AcDbLine
 10
2.532932159628445
 20
5.802153193667753
 30
0.0
 11
2.532932159628444
 21
0.5521531936677526
 31
0.0
  0
ARC
  5
2051C
330
20515
100
AcDbEntity
  8
0
 62
     0
100
AcDbCircle
 10
3.907932159628445
 20
0.5521531936677526
 30
0.0
 40
0.125
100
AcDbArc
 50
270.0
 51
0.0
  0
ARC
  5
2051D
330
20515
100
AcDbEntity
  8
0
 62
     0
100
AcDbCircle
 10
2.657932159628444
 20
0.5521531936677526
 30
0.0
 40
0.125
100
AcDbArc
 50
180.0
 51
270.0
  0
ENDBLK
  5
2051F
330
20515
100
AcDbEntity
  8
0
100
AcDbBlockEnd
  0
BLOCK
  5
20588
330
2057D
100
AcDbEntity
  8
0
100
AcDbBlockBegin
  2
GH500
 70
     0
 10
0.0
 20
0.0
 30
0.0
  3
GH500
  1
GH500
  0
LINE
  5
2057E
330
2057D
100
AcDbEntity
  8
0
 62
     0
100
AcDbLine
 10
4.018521183385358
 20
3.820695886957427
 30
0.0
 11
4.018521183385358
 21
2.633195886957427
 31
0.0
  0
ARC
  5
2057F
330
2057D
100
AcDbEntity
  8
0
 62
     0
100
AcDbCircle
 10
4.416752006783801
 20
2.649943562537649
 30
0.0
 40
0.282399838501565
100
AcDbArc
 50
128.0997058121708
 51
159.692656810215
  0
LINE
  5
20580
330
2057D
100
AcDbEntity
  8
0
 62
     0
100
AcDbLine
 10
4.301945470302086
 20
3.409049330140407
 30
0.0
 11
4.301945470302086
 21
3.089949342522391
 31
0.0
  0
LINE
  5
20581
330
2057D
100
AcDbEntity
  8
0
 62
     0
100
AcDbLine
 10
4.018521183385358
 20
2.633195886957427
 30
0.0
 11
4.041699895703247
 21
2.633195886957427
 31
0.0
  0
LINE
  5
20582
330
2057D
100
AcDbEntity
  8
0
 62
     0
100
AcDbLine
 10
4.018521183385358
 20
3.820695886957427
 30
0.0
 11
4.33852294426268
 21
3.820695886957427
 31
0.0
  0
ARC
  5
20583
330
2057D
100
AcDbEntity
  8
0
 62
     0
100
AcDbCircle
 10
4.311766440383648
 20
3.615625024713011
 30
0.0
 40
0.2068090158612454
100
AcDbArc
 50
267.2781078147042
 51
82.56635840824373
  0
ARC
  5
20584
330
2057D
100
AcDbEntity
  8
0
 62
     0
100
AcDbCircle
 10
4.311669893072208
 20
3.054393248349585
 30
0.0
 40
0.0368619075881536
100
AcDbArc
 50
105.2960661455784
 51
210.1503549456953
  0
ARC
  5
20585
330
2057D
100
AcDbEntity
  8
0
 62
     0
100
AcDbCircle
 10
4.200593367820168
 20
2.967821541970352
 30
0.0
 40
0.1044253943053654
100
AcDbArc
 50
293.661292675397
 51
40.67207772949214
  0
LINE
  5
20586
330
2057D
100
AcDbEntity
  8
0
 62
     0
100
AcDbLine
 10
4.518521183385358
 20
3.610887378905895
 30
0.0
 11
4.518521183385358
 21
3.616966636204096
 31
0.0
  0
ARC
  5
20587
330
2057D
100
AcDbEntity
  8
0
 62
     0
100
AcDbCircle
 10
3.995636023561776
 20
2.787728112142449
 30
0.0
 40
0.1612516323554586
100
AcDbArc
 50
286.5985749629937
 51
345.7194188212578
  0
ENDBLK
  5
20589
330
2057D
100
AcDbEntity
  8
0
100
AcDbBlockEnd
  0
BLOCK
  5
2060B
330
205F7
100
AcDbEntity
  8
0
100
AcDbBlockBegin
  2
GH700
 70
     0
 10
0.0
 20
0.0
 30
0.0
  3
GH700
  1
GH700
  0
ARC
  5
205F8
330
205F7
100
AcDbEntity
  8
0
 62
     0
100
AcDbCircle
 10
4.891774479624404
 20
0.6394705382492762
 30
0.0
 40
1.313881369884044
100
AcDbArc
 50
306.52195049018
 51
74.207271041802
  0
ARC
  5
205F9
330
205F7
100
AcDbEntity
  8
0
 62
     0
100
AcDbCircle
 10
6.431262495579527
 20
-1.575323068792457
 30
0.0
 40
1.384553800397502
100
AcDbArc
 50
123.171623639589
 51
160.4081694011783
  0
ARC
  5
205FA
330
205F7
100
AcDbEntity
  8
0
 62
     0
100
AcDbCircle
 10
5.4897799878924
 20
-1.247987398189722
 30
0.0
 40
0.3878857700958458
100
AcDbArc
 50
159.3282258564964
 51
264.3970828427631
  0
LINE
  5
205FB
330
205F7
100
AcDbEntity
  8
0
 62
     0
100
AcDbLine
 10
4.579571707445867
 20
2.462004774060376
 30
0.0
 11
4.931614051105143
 21
2.462004774060376
 31
0.0
  0
LINE
  5
205FC
330
205F7
100
AcDbEntity
  8
0
 62
     0
100
AcDbLine
 10
4.579571707445865
 20
-2.240266188545083
 30
0.0
 11
4.579571707445865
 21
-3.162995225939623
 31
0.0
  0
LINE
  5
205FD
330
205F7
100
AcDbEntity
  8
0
 62
     0
100
AcDbLine
 10
4.579571707445865
 20
-3.162995225939623
 30
0.0
 11
4.891818408501557
 21
-3.162995225939623
 31
0.0
  0
LINE
  5
205FE
330
205F7
100
AcDbEntity
  8
0
 62
     0
100
AcDbLine
 10
4.579571707445867
 20
2.462004774060376
 30
0.0
 11
4.579571707445867
 21
1.655053551494579
 31
0.0
  0
LINE
  5
205FF
330
205F7
100
AcDbEntity
  8
0
 62
     0
100
AcDbLine
 10
4.931614051105143
 20
2.462004774060376
 30
0.0
 11
4.931614051105143
 21
2.307412560567689
 31
0.0
  0
ARC
  5
20600
330
205F7
100
AcDbEntity
  8
0
 62
     0
100
AcDbCircle
 10
5.158072570640724
 20
2.158786125703365
 30
0.0
 40
0.2708750232316117
100
AcDbArc
 50
289.6943220930789
 51
146.7228075160318
  0
LINE
  5
20601
330
205F7
100
AcDbEntity
  8
0
 62
     0
100
AcDbLine
 10
5.451909315157853
 20
-1.634020017005128
 30
0.0
 11
5.451909315157853
 21
-1.806768166580992
 31
0.0
  0
ARC
  5
20602
330
205F7
100
AcDbEntity
  8
0
 62
     0
100
AcDbCircle
 10
5.324465039399242
 20
-2.211793376892663
 30
0.0
 40
0.4246027136178595
100
AcDbArc
 50
291.4952897453619
 51
72.53341966614096
  0
ARC
  5
20603
330
205F7
100
AcDbEntity
  8
0
 62
     0
100
AcDbCircle
 10
5.121541953687921
 20
-2.724742646439258
 30
0.0
 40
0.2339333340425213
100
AcDbArc
 50
274.7584822000203
 51
350.4670724255498
  0
LINE
  5
20604
330
205F7
100
AcDbEntity
  8
0
 62
     0
100
AcDbLine
 10
5.480049976797578
 20
-2.606863992943016
 30
0.0
 11
5.480049976797578
 21
-2.763485373225187
 31
0.0
  0
LINE
  5
20605
330
205F7
100
AcDbEntity
  8
0
 62
     0
100
AcDbLine
 10
4.891818408501557
 20
-2.95786966665905
 30
0.0
 11
5.140948066634368
 21
-2.95786966665905
 31
0.0
  0
LINE
  5
20606
330
205F7
100
AcDbEntity
  8
0
 62
     0
100
AcDbLine
 10
4.579571707445867
 20
1.655053551494579
 30
0.0
 11
4.704571707445867
 21
1.530053551494579
 31
0.0
  0
LINE
  5
20607
330
205F7
100
AcDbEntity
  8
0
 62
     0
100
AcDbLine
 10
4.704571707445867
 20
1.530053551494579
 30
0.0
 11
4.704571707445865
 21
-2.115266188545082
 31
0.0
  0
LINE
  5
20608
330
205F7
100
AcDbEntity
  8
0
 62
     0
100
AcDbLine
 10
5.480049976797578
 20
-2.763485373225187
 30
0.0
 11
5.352244805637005
 21
-2.763485373225187
 31
0.0
  0
LINE
  5
20609
330
205F7
100
AcDbEntity
  8
0
 62
     0
100
AcDbLine
 10
4.891818408501557
 20
-2.95786966665905
 30
0.0
 11
4.891818408501557
 21
-3.162995225939623
 31
0.0
  0
LINE
  5
2060A
330
205F7
100
AcDbEntity
  8
0
 62
     0
100
AcDbLine
 10
4.579571707445865
 20
-2.240266188545083
 30
0.0
 11
4.704571707445865
 21
-2.115266188545083
 31
0.0
  0
ENDBLK
  5
2060C
330
205F7
100
AcDbEntity
  8
0
100
AcDbBlockEnd
  0
BLOCK
  5
206B6
330
2069A
100
AcDbEntity
  8
0
100
AcDbBlockBegin
  2
GH540
 70
     0
 10
0.0
 20
0.0
 30
0.0
  3
GH540
  1
GH540
  0
ARC
  5
2069B
330
2069A
100
AcDbEntity
  8
0
 62
     0
100
AcDbCircle
 10
7.791600917027849
 20
3.707498428214484
 30
0.0
 40
0.0719183821342378
100
AcDbArc
 50
5.542883917450934
 51
75.1543828727416
  0
ARC
  5
2069C
330
2069A
100
AcDbEntity
  8
0
 62
     0
100
AcDbCircle
 10
7.828487856499609
 20
3.260810892512887
 30
0.0
 40
0.0613277297414686
100
AcDbArc
 50
116.8815263799283
 51
264.0821603002626
  0
ARC
  5
2069D
330
2069A
100
AcDbEntity
  8
0
 62
     0
100
AcDbCircle
 10
7.825239148275367
 20
3.110876198094893
 30
0.0
 40
0.0889869162688125
100
AcDbArc
 50
288.3637289447972
 51
91.97984750422906
  0
ARC
  5
2069E
330
2069A
100
AcDbEntity
  8
0
 62
     0
100
AcDbCircle
 10
7.863737000184839
 20
2.916604900207582
 30
0.0
 40
0.1103132709268986
100
AcDbArc
 50
95.44240602412714
 51
261.9282151788945
  0
ARC
  5
2069F
330
2069A
100
AcDbEntity
  8
0
 62
     0
100
AcDbCircle
 10
7.850647125852764
 20
2.684585550444411
 30
0.0
 40
0.1228224040404304
100
AcDbArc
 50
4.672487724432952
 51
91.11947597964158
  0
ARC
  5
206A0
330
2069A
100
AcDbEntity
  8
0
 62
     0
100
AcDbCircle
 10
7.836990702181931
 20
1.590783165531418
 30
0.0
 40
0.1086450854713116
100
AcDbArc
 50
111.4224895397828
 51
248.5342044921297
  0
ARC
  5
206A1
330
2069A
100
AcDbEntity
  8
0
 62
     0
100
AcDbCircle
 10
7.753865933475809
 20
1.402454616582778
 30
0.0
 40
0.0974058524242271
100
AcDbArc
 50
290.1643903827472
 51
63.56289288058727
  0
ARC
  5
206A2
330
2069A
100
AcDbEntity
  8
0
 62
     0
100
AcDbCircle
 10
7.822009329808836
 20
1.228470893366306
 30
0.0
 40
0.0894930818012949
100
AcDbArc
 50
112.7209814819615
 51
259.0197000178196
  0
ARC
  5
206A3
330
2069A
100
AcDbEntity
  8
0
 62
     0
100
AcDbCircle
 10
7.788038197093567
 20
0.9743139250404396
 30
0.0
 40
0.1671613174024779
100
AcDbArc
 50
282.3845003786853
 51
84.18878572426271
  0
LINE
  5
206A4
330
2069A
100
AcDbEntity
  8
0
 62
     0
100
AcDbLine
 10
7.479198053848033
 20
1.280845068937692
 30
0.0
 11
7.479198053848033
 21
0.5106090471956102
 31
0.0
  0
ARC
  5
206A5
330
2069A
100
AcDbEntity
  8
0
 62
     0
100
AcDbCircle
 10
7.896976343544483
 20
1.770350704775914
 30
0.0
 40
0.079217188569896
100
AcDbArc
 50
278.0918971736164
 51
355.565783105993
  0
LINE
  5
206A6
330
2069A
100
AcDbEntity
  8
0
 62
     0
100
AcDbLine
 10
7.908127051683781
 20
1.691922236265362
 30
0.0
 11
7.7973089309495
 21
1.691922236265362
 31
0.0
  0
LINE
  5
206A7
330
2069A
100
AcDbEntity
  8
0
 62
     0
100
AcDbLine
 10
7.975956415900336
 20
1.84320981821895
 30
0.0
 11
7.975956415900336
 21
1.764226071269917
 31
0.0
  0
ARC
  5
206A8
330
2069A
100
AcDbEntity
  8
0
 62
     0
100
AcDbCircle
 10
7.825725837798671
 20
3.511643011303087
 30
0.0
 40
0.1649755769281372
100
AcDbArc
 50
292.1566799626066
 51
76.8767307791623
  0
ARC
  5
206A9
330
2069A
100
AcDbEntity
  8
0
 62
     0
100
AcDbCircle
 10
7.828388221418022
 20
2.238025786201301
 30
0.0
 40
0.4214926103701122
100
AcDbArc
 50
290.4939586981293
 51
69.92560434855761
  0
ARC
  5
206AA
330
2069A
100
AcDbEntity
  8
0
 62
     0
100
AcDbCircle
 10
7.894555995155495
 20
4.018125251088539
 30
0.0
 40
0.2554968897618146
100
AcDbArc
 50
181.6857696409949
 51
250.6802586721486
  0
LINE
  5
206AB
330
2069A
100
AcDbEntity
  8
0
 62
     0
100
AcDbLine
 10
7.86318302191929
 20
3.714445078350848
 30
0.0
 11
7.86318302191929
 21
3.672310059388641
 31
0.0
  0
LINE
  5
206AC
330
2069A
100
AcDbEntity
  8
0
 62
     0
100
AcDbLine
 10
7.887944833978647
 20
3.358849891375756
 30
0.0
 11
7.800758698431919
 21
3.315511753823288
 31
0.0
  0
LINE
  5
206AD
330
2069A
100
AcDbEntity
  8
0
 62
     0
100
AcDbLine
 10
7.479198053848034
 20
4.01060904719561
 30
0.0
 11
7.479198053848034
 21
3.299419447499478
 31
0.0
  0
LINE
  5
206AE
330
2069A
100
AcDbEntity
  8
0
 62
     0
100
AcDbLine
 10
7.479198053848033
 20
1.280845068937692
 30
0.0
 11
7.541698053848033
 21
1.343345068937692
 31
0.0
  0
LINE
  5
206AF
330
2069A
100
AcDbEntity
  8
0
 62
     0
100
AcDbLine
 10
7.479198053848033
 20
0.5106090471956102
 30
0.0
 11
7.603464211811607
 21
0.5106090471956102
 31
0.0
  0
LINE
  5
206B0
330
2069A
100
AcDbEntity
  8
0
 62
     0
100
AcDbLine
 10
7.541698053848034
 20
3.236919447499477
 30
0.0
 11
7.541698053848033
 21
1.343345068937692
 31
0.0
  0
LINE
  5
206B1
330
2069A
100
AcDbEntity
  8
0
 62
     0
100
AcDbLine
 10
7.973061344020048
 20
2.694590655379567
 30
0.0
 11
7.973061344020048
 21
2.633911764979523
 31
0.0
  0
LINE
  5
206B2
330
2069A
100
AcDbEntity
  8
0
 62
     0
100
AcDbLine
 10
7.479198053848034
 20
3.299419447499478
 30
0.0
 11
7.541698053848034
 21
3.236919447499477
 31
0.0
  0
ARC
  5
206B3
330
2069A
100
AcDbEntity
  8
0
 62
     0
100
AcDbCircle
 10
7.727346065939742
 20
0.7962803272949448
 30
0.0
 40
0.0976654884127517
100
AcDbArc
 50
274.4427187595858
 51
8.693535079783134
  0
ARC
  5
206B4
330
2069A
100
AcDbEntity
  8
0
 62
     0
100
AcDbCircle
 10
7.798399674153163
 20
0.5145589440309444
 30
0.0
 40
0.1949754757997175
100
AcDbArc
 50
109.0032322926848
 51
181.1608018907312
  0
LINE
  5
206B5
330
2069A
100
AcDbEntity
  8
0
 62
     0
100
AcDbLine
 10
7.479198053848034
 20
4.01060904719561
 30
0.0
 11
7.639169685113236
 21
4.01060904719561
 31
0.0
  0
ENDBLK
  5
206B7
330
2069A
100
AcDbEntity
  8
0
100
AcDbBlockEnd
  0
BLOCK
  5
207BD
330
207AB
100
AcDbEntity
  8
0
100
AcDbBlockBegin
  2
GH060
 70
     0
 10
0.0
 20
0.0
 30
0.0
  3
GH060
  1
GH060
  0
ARC
  5
207AC
330
207AB
100
AcDbEntity
  8
0
 62
     0
100
AcDbCircle
 10
4.099773494303112
 20
2.097469165386558
 30
0.0
 40
0.1760568752749737
100
AcDbArc
 50
295.6142216634476
 51
7.279860153001054
  0
ARC
  5
207AD
330
207AB
100
AcDbEntity
  8
0
 62
     0
100
AcDbCircle
 10
4.224126723144101
 20
1.804532426131018
 30
0.0
 40
0.1425905449128183
100
AcDbArc
 50
109.774945768841
 51
171.5338958764405
  0
ARC
  5
207AE
330
207AB
100
AcDbEntity
  8
0
 62
     0
100
AcDbCircle
 10
3.712020735103373
 20
0.9641940114178794
 30
0.0
 40
0.1945417087503624
100
AcDbArc
 50
288.2371299669547
 51
345.0273126031728
  0
ARC
  5
207AF
330
207AB
100
AcDbEntity
  8
0
 62
     0
100
AcDbCircle
 10
3.810315364999036
 20
0.693628144930561
 30
0.0
 40
0.0935985089296474
100
AcDbArc
 50
113.5603510349961
 51
184.666989024778
  0
LINE
  5
207B0
330
207AB
100
AcDbEntity
  8
0
 62
     0
100
AcDbLine
 10
3.58502566256788
 20
2.122465608109159
 30
0.0
 11
3.58502566256788
 21
0.6090878752982019
 31
0.0
  0
LINE
  5
207B1
330
207AB
100
AcDbEntity
  8
0
 62
     0
100
AcDbLine
 10
4.258235994825716
 20
2.546587875298202
 30
0.0
 11
4.313963625824823
 21
2.546587875298202
 31
0.0
  0
LINE
  5
207B2
330
207AB
100
AcDbEntity
  8
0
 62
     0
100
AcDbLine
 10
4.36627566256788
 20
2.185273377561313
 30
0.0
 11
4.36627566256788
 21
2.538564065207458
 31
0.0
  0
LINE
  5
207B3
330
207AB
100
AcDbEntity
  8
0
 62
     0
100
AcDbLine
 10
3.58502566256788
 20
0.6090878752982019
 30
0.0
 11
3.717027188450711
 21
0.6090878752982019
 31
0.0
  0
ARC
  5
207B4
330
207AB
100
AcDbEntity
  8
0
 62
     0
100
AcDbCircle
 10
4.28609981032527
 20
2.190388231216275
 30
0.0
 40
0.3572878092774568
100
AcDbArc
 50
94.47286955895768
 51
153.1785336323068
  0
ARC
  5
207B5
330
207AB
100
AcDbEntity
  8
0
 62
     0
100
AcDbCircle
 10
3.611840966249721
 20
2.511099894072732
 30
0.0
 40
0.3895582995367519
100
AcDbArc
 50
266.0529152081107
 51
335.8305977675653
  0
LINE
  5
207B6
330
207AB
100
AcDbEntity
  8
0
 62
     0
100
AcDbLine
 10
3.985756527274502
 20
1.735270901557408
 30
0.0
 11
3.985756527274502
 21
1.006424144343275
 31
0.0
  0
LINE
  5
207B7
330
207AB
100
AcDbEntity
  8
0
 62
     0
100
AcDbLine
 10
3.717027188450711
 20
0.6860125694341263
 30
0.0
 11
3.717027188450711
 21
0.6090878752982019
 31
0.0
  0
ARC
  5
207B8
330
207AB
100
AcDbEntity
  8
0
 62
     0
100
AcDbCircle
 10
4.28609981032527
 20
2.190388231216275
 30
0.0
 40
0.3572878092774568
100
AcDbArc
 50
77.03232448886476
 51
85.52713044104232
  0
ARC
  5
207B9
330
207AB
100
AcDbEntity
  8
0
 62
     0
100
AcDbCircle
 10
3.942742869715349
 20
0.9092073105216756
 30
0.0
 40
0.0430454256779941
100
AcDbArc
 50
115.3985255023501
 51
173.697824851039
  0
ARC
  5
207BA
330
207AB
100
AcDbEntity
  8
0
 62
     0
100
AcDbCircle
 10
3.995496386448993
 20
1.822378161293742
 30
0.0
 40
0.0876500972932263
100
AcDbArc
 50
263.6199986863162
 51
2.05763392927416
  0
ARC
  5
207BB
330
207AB
100
AcDbEntity
  8
0
 62
     0
100
AcDbCircle
 10
3.892267564048708
 20
1.043391628649488
 30
0.0
 40
0.1005324879875356
100
AcDbArc
 50
288.5680350256302
 51
338.4251251245985
  0
ARC
  5
207BC
330
207AB
100
AcDbEntity
  8
0
 62
     0
100
AcDbCircle
 10
4.274411183093342
 20
2.216951274564875
 30
0.0
 40
0.0971728961578071
100
AcDbArc
 50
270.0
 51
340.9741206671608
  0
ENDBLK
  5
207BE
330
207AB
100
AcDbEntity
  8
0
100
AcDbBlockEnd
  0
BLOCK
  5
2085C
330
2085B
100
AcDbEntity
  8
0
100
AcDbBlockBegin
  2
*D13
 70
     1
 10
0.0
 20
0.0
 30
0.0
  3
*D13
  1
*D13
  0
LINE
  5
2085E
330
2085B
100
AcDbEntity
  8
0
 62
     0
100
AcDbLine
 10
4.705402565519536
 20
3.84488708106626
 30
0.0
 11
5.095566358760657
 21
3.84488708106626
 31
0.0
  0
LINE
  5
2085F
330
2085B
100
AcDbEntity
  8
0
 62
     0
100
AcDbLine
 10
4.705402565519536
 20
3.314263641942457
 30
0.0
 11
5.095566358760657
 21
3.314263641942457
 31
0.0
  0
LINE
  5
20860
330
2085B
100
AcDbEntity
  8
0
 62
     0
100
AcDbLine
 10
5.045566358760658
 20
3.84488708106626
 30
0.0
 11
5.045566358760658
 21
3.314263641942457
 31
0.0
  0
LINE
  5
20861
330
2085B
100
AcDbEntity
  8
0
 62
     0
100
AcDbLine
 10
5.045566358760658
 20
4.844887081066259
 30
0.0
 11
5.045566358760658
 21
5.844887081066259
 31
0.0
  0
LINE
  5
20862
330
2085B
100
AcDbEntity
  8
0
 62
     0
100
AcDbLine
 10
5.045566358760658
 20
2.314263641942457
 30
0.0
 11
5.045566358760658
 21
1.314263641942457
 31
0.0
  0
SOLID
  5
20863
330
2085B
100
AcDbEntity
  8
0
 62
     0
100
AcDbTrace
 10
4.878899692093991
 20
4.844887081066259
 30
0.0
 11
5.212233025427325
 21
4.844887081066259
 31
0.0
 12
5.045566358760658
 22
3.84488708106626
 32
0.0
 13
5.045566358760658
 23
3.84488708106626
 33
0.0
  0
SOLID
  5
20864
330
2085B
100
AcDbEntity
  8
0
 62
     0
100
AcDbTrace
 10
5.212233025427325
 20
2.314263641942457
 30
0.0
 11
4.878899692093991
 21
2.314263641942457
 31
0.0
 12
5.045566358760658
 22
3.314263641942457
 32
0.0
 13
5.045566358760658
 23
3.314263641942457
 33
0.0
  0
MTEXT
  5
20865
330
2085B
100
AcDbEntity
  8
0
 62
     0
100
AcDbMText
 10
4.874233025427325
 20
3.579575361504359
 30
0.0
 40
0.125
 41
0.0
 71
     5
 72
     1
  1
{\H1.000000x;\S1/2;}
 11
0.0
 21
1.0
 31
0.0
  0
POINT
  5
20866
330
2085B
100
AcDbEntity
  8
DEFPOINTS
 62
     0
100
AcDbPoint
 10
4.680402565519536
 20
3.84488708106626
 30
0.0
  0
POINT
  5
20867
330
2085B
100
AcDbEntity
  8
DEFPOINTS
 62
     0
100
AcDbPoint
 10
4.680402565519536
 20
3.314263641942457
 30
0.0
  0
POINT
  5
20868
330
2085B
100
AcDbEntity
  8
DEFPOINTS
 62
     0
100
AcDbPoint
 10
5.045566358760658
 20
3.314263641942457
 30
0.0
  0
ENDBLK
  5
2085D
330
2085B
100
AcDbEntity
  8
0
100
AcDbBlockEnd
  0
BLOCK
  5
208B8
330
208B7
100
AcDbEntity
  8
0
100
AcDbBlockBegin
  2
*D14
 70
     1
 10
0.0
 20
0.0
 30
0.0
  3
*D14
  1
*D14
  0
LINE
  5
208BA
330
208B7
100
AcDbEntity
  8
0
 62
     0
100
AcDbLine
 10
3.617902565519537
 20
0.3198870810662605
 30
0.0
 11
3.617902565519537
 21
-0.1216221988200003
 31
0.0
  0
LINE
  5
208BB
330
208B7
100
AcDbEntity
  8
0
 62
     0
100
AcDbLine
 10
4.334247111516936
 20
0.3198870810662605
 30
0.0
 11
4.334247111516936
 21
-0.1216221988200003
 31
0.0
  0
LINE
  5
208BC
330
208B7
100
AcDbEntity
  8
0
 62
     0
100
AcDbLine
 10
3.617902565519537
 20
-0.0716221988200003
 30
0.0
 11
4.334247111516936
 21
-0.0716221988200003
 31
0.0
  0
LINE
  5
208BD
330
208B7
100
AcDbEntity
  8
0
 62
     0
100
AcDbLine
 10
2.617902565519537
 20
-0.0716221988200003
 30
0.0
 11
1.617902565519537
 21
-0.0716221988200003
 31
0.0
  0
LINE
  5
208BE
330
208B7
100
AcDbEntity
  8
0
 62
     0
100
AcDbLine
 10
5.334247111516936
 20
-0.0716221988200003
 30
0.0
 11
6.334247111516936
 21
-0.0716221988200003
 31
0.0
  0
SOLID
  5
208BF
330
208B7
100
AcDbEntity
  8
0
 62
     0
100
AcDbTrace
 10
2.617902565519537
 20
-0.238288865486667
 30
0.0
 11
2.617902565519537
 21
0.0950444678466663
 31
0.0
 12
3.617902565519537
 22
-0.0716221988200003
 32
0.0
 13
3.617902565519537
 23
-0.0716221988200003
 33
0.0
  0
SOLID
  5
208C0
330
208B7
100
AcDbEntity
  8
0
 62
     0
100
AcDbTrace
 10
5.334247111516936
 20
0.0950444678466663
 30
0.0
 11
5.334247111516936
 21
-0.238288865486667
 31
0.0
 12
4.334247111516936
 22
-0.0716221988200003
 32
0.0
 13
4.334247111516936
 23
-0.0716221988200003
 33
0.0
  0
MTEXT
  5
208C1
330
208B7
100
AcDbEntity
  8
0
 62
     0
100
AcDbMText
 10
3.976074838518236
 20
0.100773634513333
 30
0.0
 40
0.125
 41
0.0
 71
     5
 72
     1
  1
{\H1.000000x;\S11/16;}
  0
POINT
  5
208C2
330
208B7
100
AcDbEntity
  8
DEFPOINTS
 62
     0
100
AcDbPoint
 10
3.617902565519537
 20
0.3448870810662605
 30
0.0
  0
POINT
  5
208C3
330
208B7
100
AcDbEntity
  8
DEFPOINTS
 62
     0
100
AcDbPoint
 10
4.334247111516936
 20
0.3448870810662605
 30
0.0
  0
POINT
  5
208C4
330
208B7
100
AcDbEntity
  8
DEFPOINTS
 62
     0
100
AcDbPoint
 10
4.334247111516936
 20
-0.0716221988200003
 30
0.0
  0
ENDBLK
  5
208B9
330
208B7
100
AcDbEntity
  8
0
100
AcDbBlockEnd
  0
BLOCK
  5
20910
330
2090E
100
AcDbEntity
  8
0
100
AcDbBlockBegin
  2
HG680
 70
     0
 10
0.0
 20
0.0
 30
0.0
  3
HG680
  1
HG680
  0
ARC
  5
20912
330
2090E
100
AcDbEntity
  8
0
 62
     0
100
AcDbCircle
 10
4.149152565519536
 20
3.312660518566261
 30
0.0
 40
0.532226562499999
100
AcDbArc
 50
3.471409177856688
 51
176.5285908221433
  0
LINE
  5
20913
330
2090E
100
AcDbEntity
  8
0
 62
     0
100
AcDbLine
 10
3.617902565519537
 20
0.3448870810662605
 30
0.0
 11
4.367902565519537
 21
0.3448870810662605
 31
0.0
  0
LINE
  5
20914
330
2090E
100
AcDbEntity
  8
0
 62
     0
100
AcDbLine
 10
4.680402565519536
 20
3.34488708106626
 30
0.0
 11
4.680402565519536
 21
2.34488708106626
 31
0.0
  0
LINE
  5
20915
330
2090E
100
AcDbEntity
  8
0
 62
     0
100
AcDbLine
 10
3.617902565519537
 20
0.3448870810662605
 30
0.0
 11
3.617902565519537
 21
3.344887081066259
 31
0.0
  0
LINE
  5
20916
330
2090E
100
AcDbEntity
  8
0
 62
     0
100
AcDbLine
 10
4.367902565519537
 20
2.34488708106626
 30
0.0
 11
4.680402565519537
 21
2.34488708106626
 31
0.0
  0
LINE
  5
20917
330
2090E
100
AcDbEntity
  8
0
 62
     0
100
AcDbLine
 10
4.367902565519537
 20
0.3448870810662605
 30
0.0
 11
4.367902565519537
 21
2.34488708106626
 31
0.0
  0
ENDBLK
  5
20911
330
2090E
100
AcDbEntity
  8
0
100
AcDbBlockEnd
  0
BLOCK
  5
20AA8
330
20A80
100
AcDbEntity
  8
0
100
AcDbBlockBegin
  2
A$C17835
 70
     0
 10
0.0
 20
0.0
 30
0.0
  3
A$C17835
  1
A$C17835
  0
ARC
  5
20AA2
330
20A80
100
AcDbEntity
  8
0
  6
BYBLOCK
 62
     0
100
AcDbCircle
 10
2.9677734375
 20
0.5312500000000011
 30
0.0
 40
0.532226562499999
100
AcDbArc
 50
273.4714091778567
 51
86.52859082214331
  0
LINE
  5
20AA3
330
20A80
100
AcDbEntity
  8
0
  6
BYBLOCK
 62
     0
100
AcDbLine
 10
0.0
 20
1.0625
 30
0.0
 11
0.0
 21
0.3124999999999999
 31
0.0
  0
LINE
  5
20AA4
330
20A80
100
AcDbEntity
  8
0
  6
BYBLOCK
 62
     0
100
AcDbLine
 10
3.0
 20
0.0000000000000011
 30
0.0
 11
2.0
 21
0.0000000000000009
 31
0.0
  0
LINE
  5
20AA5
330
20A80
100
AcDbEntity
  8
0
  6
BYBLOCK
 62
     0
100
AcDbLine
 10
0.0
 20
1.0625
 30
0.0
 11
2.999999999999999
 21
1.0625
 31
0.0
  0
LINE
  5
20AA6
330
20A80
100
AcDbEntity
  8
0
  6
BYBLOCK
 62
     0
100
AcDbLine
 10
2.0
 20
0.3125000000000001
 30
0.0
 11
2.0
 21
0.0
 31
0.0
  0
LINE
  5
20AA7
330
20A80
100
AcDbEntity
  8
0
  6
BYBLOCK
 62
     0
100
AcDbLine
 10
0.0
 20
0.3124999999999999
 30
0.0
 11
2.0
 21
0.3125000000000001
 31
0.0
  0
ENDBLK
  5
20AA9
330
20A80
100
AcDbEntity
  8
0
100
AcDbBlockEnd
  0
ENDSEC
  0
SECTION
  2
ENTITIES
  0
INSERT
  5
209EF
330
1F
100
AcDbEntity
  8
0
  6
BYBLOCK
 62
     0
100
AcDbBlockReference
  2
TEXT
 10
2.763591572187176
 20
0.0142029227092154
 30
0.0
  0
INSERT
  5
20AAA
330
1F
100
AcDbEntity
  8
0
 62
     0
100
AcDbBlockReference
  2
A$C17835
 10
0.0
 20
0.0000455597675901
 30
0.0
  0
VIEWPORT
  5
200AE
330
1E
100
AcDbEntity
 67
     1
  8
0
100
AcDbViewport
 10
0.0
 20
0.0
 30
0.0
 40
1002.246201206316
 41
456.64006025111
 68
     1
 69
     1
1001
ACAD
1000
MVIEW
1002
{
1070
    16
1010
0.0
1020
0.0
1030
0.0
1010
0.0
1020
0.0
1030
1.0
1040
0.0
1040
456.64006025111
1040
380.3499072533549
1040
109.553293524919
1040
50.0
1040
0.0
1040
0.0
1070
    16
1070
   100
1070
     0
1070
     3
1070
     0
1070
     0
1070
     0
1070
     0
1040
0.0
1040
0.0
1040
0.0
1040
0.5
1040
0.5
1040
0.0
1040
0.0
1070
     0
1002
{
1002
}
1002
}
  0
VIEWPORT
  5
200AF
330
1E
100
AcDbEntity
 67
     1
  8
0
100
AcDbViewport
 10
338.9253027509138
 20
113.2756400467991
 30
0.0
 40
422.1800123983795
 41
106.6458095810703
 68
     2
 69
     2
1001
ACAD
1000
MVIEW
1002
{
1070
    16
1010
0.0
1020
0.0
1030
0.0
1010
0.0
1020
0.0
1030
1.0
1040
0.0
1040
1.253481703060462
1040
2.399560940696535
1040
0.5517901998665824
1040
50.0
1040
0.0
1040
0.0
1070
     0
1070
   100
1070
     0
1070
     3
1070
     0
1070
     0
1070
     0
1070
     0
1040
0.0
1040
0.0
1040
0.0
1040
0.5
1040
0.5
1040
0.0
1040
0.0
1070
     0
1002
{
1002
}
1002
}
  0
ENDSEC
  0
SECTION
  2
OBJECTS
  0
DICTIONARY
  5
C
330
0
100
AcDbDictionary
  3
ACAD_DETAILVIEWSTYLE
350
200A3
  3
ACAD_GROUP
350
D
  3
ACAD_IMAGE_DICT
350
202AE
  3
ACAD_IMAGE_VARS
350
20048
  3
ACAD_MLINESTYLE
350
20000
  3
ACAD_SCALELIST
350
20AAC
  3
ACAD_SECTIONVIEWSTYLE
350
200A4
  3
ACDBVARIABLEDICTIONARY
350
200B8
  3
APPDATA
350
20046
  3
DWGPROPS
350
20AF4
  0
DICTIONARY
  5
200A3
102
{ACAD_REACTORS
330
C
102
}
330
C
100
AcDbDictionary
  0
DICTIONARY
  5
D
330
C
100
AcDbDictionary
  0
DICTIONARY
  5
202AE
102
{ACAD_REACTORS
330
C
102
}
330
C
100
AcDbDictionary
  3
GH060
350
2074F
  3
GH100
350
203FC
  3
GH201
350
202AF
  3
GH400
350
20499
  3
GH500
350
2056E
  3
GH540
350
20659
  3
GH680
350
2080C
  3
GH700
350
205D8
  3
GH850
350
20375
  0
RASTERVARIABLES
  5
20048
102
{ACAD_REACTORS
330
C
102
}
330
C
100
AcDbRasterVariables
 90
        0
 70
     1
 71
     1
 72
     5
  0
DICTIONARY
  5
20000
102
{ACAD_REACTORS
330
C
102
}
330
C
100
AcDbDictionary
  3
STANDARD
350
20001
  0
DICTIONARY
  5
20AAC
102
{ACAD_REACTORS
330
C
102
}
330
C
100
AcDbDictionary
  0
DICTIONARY
  5
200A4
102
{ACAD_REACTORS
330
C
102
}
330
C
100
AcDbDictionary
  0
DICTIONARY
  5
200B8
102
{ACAD_REACTORS
330
C
102
}
330
C
100
AcDbDictionary
  0
DICTIONARY
  5
20046
102
{ACAD_REACTORS
330
C
102
}
330
C
100
AcDbDictionary
  0
XRECORD
  5
20AF4
102
{ACAD_REACTORS
330
C
102
}
330
C
100
AcDbXrecord
  1
DWGPROPS COOKIE
  2

  3

  4

  6

  7

  8
Germanos1
  9

300
=
301
=
302
=
303
=
304
=
305
=
306
=
307
=
308
=
309
=
 40
0.0
 41
2447892.999999988
 42
2457444.570412801
  1

 90
        0
  0
IMAGEDEF
  5
2074F
102
{ACAD_REACTORS
330
202AE
102
}
330
202AE
100
AcDbRasterImageDef
 90
        0
  1
C:/US, Detroit, Michigan/General Hardwood Company/Moulding Catalog/Picture Mouldings/Origin/GH060.jpg
 10
199.0
 20
82.0
 11
0.005025125628140704
 21
0.005025125628140704
280
     1
281
     0
  0
IMAGEDEF
  5
203FC
102
{ACAD_REACTORS
330
202AE
102
}
330
202AE
100
AcDbRasterImageDef
 90
        0
  1
C:/US, Detroit, Michigan/General Hardwood Company/Moulding Catalog/Casing/Origin/GH100.jpg
 10
122.0
 20
367.0
 11
0.00819672131147541
 21
0.00819672131147541
280
     1
281
     0
  0
IMAGEDEF
  5
202AF
102
{ACAD_REACTORS
330
202AE
102
}
330
202AE
100
AcDbRasterImageDef
 90
        0
  1
C:/US, Detroit, Michigan/General Hardwood Company/Moulding Catalog/Base/Origin/GH201.jpg
 10
112.0
 20
448.0
 11
0.008928571428571428
 21
0.008928571428571428
280
     1
281
     0
  0
IMAGEDEF
  5
20499
102
{ACAD_REACTORS
330
202AE
102
}
330
202AE
100
AcDbRasterImageDef
 90
        0
  1
C:/US, Detroit, Michigan/General Hardwood Company/Moulding Catalog/Chair Rail/Origin/GH400.jpg
 10
98.0
 20
362.0
 11
0.01020408163265306
 21
0.01020408163265306
280
     1
281
     0
  0
IMAGEDEF
  5
2056E
102
{ACAD_REACTORS
330
202AE
102
}
330
202AE
100
AcDbRasterImageDef
 90
        0
  1
C:/US, Detroit, Michigan/General Hardwood Company/Moulding Catalog/Inside & Outside Corners/Origin/GH500.jpg
 10
52.0
 20
127.0
 11
0.01923076923076923
 21
0.01923076923076923
280
     1
281
     0
  0
IMAGEDEF
  5
20659
102
{ACAD_REACTORS
330
202AE
102
}
330
202AE
100
AcDbRasterImageDef
 90
        0
  1
C:/US, Detroit, Michigan/General Hardwood Company/Moulding Catalog/Panel Moulding/Origin/GH540.jpg
 10
81.0
 20
351.0
 11
0.01234567901234568
 21
0.01234567901234568
280
     1
281
     0
  0
IMAGEDEF
  5
2080C
102
{ACAD_REACTORS
330
202AE
102
}
330
202AE
100
AcDbRasterImageDef
 90
        0
  1
C:/US, Detroit, Michigan/General Hardwood Company/Moulding Catalog/Standard Flooring & Nosing/Origin/GH680.jpg
 10
366.0
 20
114.0
 11
0.00273224043715847
 21
0.00273224043715847
280
     1
281
     0
  0
IMAGEDEF
  5
205D8
102
{ACAD_REACTORS
330
202AE
102
}
330
202AE
100
AcDbRasterImageDef
 90
        0
  1
C:/US, Detroit, Michigan/General Hardwood Company/Moulding Catalog/Mantel Moulding & Bar Rail/Origin/GH700.jpg
 10
172.0
 20
573.0
 11
0.005813953488372093
 21
0.005813953488372093
280
     1
281
     0
  0
IMAGEDEF
  5
20375
102
{ACAD_REACTORS
330
202AE
102
}
330
202AE
100
AcDbRasterImageDef
 90
        0
  1
C:/US, Detroit, Michigan/General Hardwood Company/Moulding Catalog/Base Cap/Origin/GH850.jpg
 10
80.0
 20
284.0
 11
0.0125
 21
0.0125
280
     1
281
     0
  0
MLINESTYLE
  5
20001
102
{ACAD_REACTORS
330
20000
102
}
330
20000
100
AcDbMlineStyle
  2
Standard
 70
     0
  3

 62
   256
 51
90.0
 52
90.0
 71
     2
 49
0.5
 62
   256
  6
BYLAYER
 49
-0.5
 62
   256
  6
BYLAYER
  0
ENDSEC
  0
EOF
