  0
SECTION
  2
HEADER
  9
$ACADVER
  1
AC1014
  9
$ACADMAINTVER
 70
     9
  9
$DWGCODEPAGE
  3
ANSI_1251
  9
$INSBASE
 10
0.0
 20
0.0
 30
0.0
  9
$EXTMIN
 10
-0.0000000000000002
 20
-0.0385788410166962
 30
0.0
  9
$EXTMAX
 10
3.7335248129331
 20
1.50004403185618
 30
0.0
  9
$LIMMIN
 10
0.0
 20
0.0
  9
$LIMMAX
 10
420.0
 20
297.0
  9
$ORTHOMODE
 70
     0
  9
$REGENMODE
 70
     1
  9
$FILLMODE
 70
     1
  9
$QTEXTMODE
 70
     0
  9
$MIRRTEXT
 70
     0
  9
$DRAGMODE
 70
     2
  9
$LTSCALE
 40
1.0
  9
$OSMODE
 70
   511
  9
$ATTMODE
 70
     0
  9
$TEXTSIZE
 40
1.0
  9
$TRACEWID
 40
15.68
  9
$TEXTSTYLE
  7
STANDARD
  9
$CLAYER
  8
0
  9
$CELTYPE
  6
BYLAYER
  9
$CECOLOR
 62
     5
  9
$CELTSCALE
 40
1.0
  9
$DELOBJ
 70
     1
  9
$DISPSILH
 70
     0
  9
$DIMSCALE
 40
1.0
  9
$DIMASZ
 40
1.0
  9
$DIMEXO
 40
0.025
  9
$DIMDLI
 40
3.75
  9
$DIMRND
 40
0.0
  9
$DIMDLE
 40
0.0
  9
$DIMEXE
 40
0.05
  9
$DIMTP
 40
0.0
  9
$DIMTM
 40
0.0
  9
$DIMTXT
 40
1.0
  9
$DIMCEN
 40
2.5
  9
$DIMTSZ
 40
0.0
  9
$DIMTOL
 70
     0
  9
$DIMLIM
 70
     0
  9
$DIMTIH
 70
     0
  9
$DIMTOH
 70
     0
  9
$DIMSE1
 70
     0
  9
$DIMSE2
 70
     0
  9
$DIMTAD
 70
     1
  9
$DIMZIN
 70
     8
  9
$DIMBLK
  1

  9
$DIMASO
 70
     1
  9
$DIMSHO
 70
     1
  9
$DIMPOST
  1

  9
$DIMAPOST
  1

  9
$DIMALT
 70
     0
  9
$DIMALTD
 70
     3
  9
$DIMALTF
 40
0.03937
  9
$DIMLFAC
 40
1.0
  9
$DIMTOFL
 70
     1
  9
$DIMTVP
 40
0.0
  9
$DIMTIX
 70
     0
  9
$DIMSOXD
 70
     0
  9
$DIMSAH
 70
     0
  9
$DIMBLK1
  1

  9
$DIMBLK2
  1

  9
$DIMSTYLE
  2
STANDARD
  9
$DIMCLRD
 70
     0
  9
$DIMCLRE
 70
     0
  9
$DIMCLRT
 70
     0
  9
$DIMTFAC
 40
1.0
  9
$DIMGAP
 40
0.025
  9
$DIMJUST
 70
     0
  9
$DIMSD1
 70
     0
  9
$DIMSD2
 70
     0
  9
$DIMTOLJ
 70
     0
  9
$DIMTZIN
 70
     8
  9
$DIMALTZ
 70
     0
  9
$DIMALTTZ
 70
     0
  9
$DIMFIT
 70
     5
  9
$DIMUPT
 70
     0
  9
$DIMUNIT
 70
     5
  9
$DIMDEC
 70
     4
  9
$DIMTDEC
 70
     2
  9
$DIMALTU
 70
     2
  9
$DIMALTTD
 70
     3
  9
$DIMTXSTY
  7
STANDARD
  9
$DIMAUNIT
 70
     0
  9
$LUNITS
 70
     5
  9
$LUPREC
 70
     4
  9
$SKETCHINC
 40
1.0
  9
$FILLETRAD
 40
0.0
  9
$AUNITS
 70
     0
  9
$AUPREC
 70
     2
  9
$MENU
  1
.
  9
$ELEVATION
 40
0.0
  9
$PELEVATION
 40
0.0
  9
$THICKNESS
 40
0.0
  9
$LIMCHECK
 70
     0
  9
$CHAMFERA
 40
0.0
  9
$CHAMFERB
 40
0.0
  9
$CHAMFERC
 40
0.0
  9
$CHAMFERD
 40
0.0
  9
$SKPOLY
 70
     0
  9
$TDCREATE
 40
2447893.083333322
  9
$TDUPDATE
 40
2457370.748515208
  9
$TDINDWG
 40
0.0424419213
  9
$TDUSRTIMER
 40
2457370.664812616
  9
$USRTIMER
 70
     1
  9
$ANGBASE
 50
0.0
  9
$ANGDIR
 70
     0
  9
$PDMODE
 70
    34
  9
$PDSIZE
 40
0.0
  9
$PLINEWID
 40
0.0
  9
$COORDS
 70
     1
  9
$SPLFRAME
 70
     0
  9
$SPLINETYPE
 70
     6
  9
$SPLINESEGS
 70
     8
  9
$ATTDIA
 70
     0
  9
$ATTREQ
 70
     1
  9
$HANDLING
 70
     1
  9
$HANDSEED
  5
204AB
  9
$SURFTAB1
 70
     6
  9
$SURFTAB2
 70
     6
  9
$SURFTYPE
 70
     6
  9
$SURFU
 70
     6
  9
$SURFV
 70
     6
  9
$UCSNAME
  2

  9
$UCSORG
 10
0.0
 20
0.0
 30
0.0
  9
$UCSXDIR
 10
1.0
 20
0.0
 30
0.0
  9
$UCSYDIR
 10
0.0
 20
1.0
 30
0.0
  9
$PUCSNAME
  2

  9
$PUCSORG
 10
0.0
 20
0.0
 30
0.0
  9
$PUCSXDIR
 10
1.0
 20
0.0
 30
0.0
  9
$PUCSYDIR
 10
0.0
 20
1.0
 30
0.0
  9
$USERI1
 70
     0
  9
$USERI2
 70
     0
  9
$USERI3
 70
     0
  9
$USERI4
 70
     0
  9
$USERI5
 70
     0
  9
$USERR1
 40
0.0
  9
$USERR2
 40
0.0
  9
$USERR3
 40
0.0
  9
$USERR4
 40
0.0
  9
$USERR5
 40
0.0
  9
$WORLDVIEW
 70
     1
  9
$SHADEDGE
 70
     3
  9
$SHADEDIF
 70
    70
  9
$TILEMODE
 70
     0
  9
$MAXACTVP
 70
    64
  9
$PINSBASE
 10
0.0
 20
0.0
 30
0.0
  9
$PLIMCHECK
 70
     0
  9
$PEXTMIN
 10
127.835296551724
 20
58.84668938343583
 30
0.0
  9
$PEXTMAX
 10
312.6124885468008
 20
375.9424430975472
 30
0.0
  9
$PLIMMIN
 10
118.5815294199894
 20
34.16997703214308
  9
$PLIMMAX
 10
636.7924887971365
 20
400.6191554488399
  9
$UNITMODE
 70
     0
  9
$VISRETAIN
 70
     1
  9
$PLINEGEN
 70
     0
  9
$PSLTSCALE
 70
     1
  9
$TREEDEPTH
 70
  3020
  9
$PICKSTYLE
 70
     1
  9
$CMLSTYLE
  2
STANDARD
  9
$CMLJUST
 70
     0
  9
$CMLSCALE
 40
20.0
  9
$PROXYGRAPHICS
 70
     1
  9
$MEASUREMENT
 70
     1
  0
ENDSEC
  0
SECTION
  2
CLASSES
  0
CLASS
  1
SCALE
  2
AcDbScale
  3
ObjectDBX Classes
 90
     1153
280
     0
281
     0
  0
CLASS
  1
MATERIAL
  2
AcDbMaterial
  3
ObjectDBX Classes
 90
     1153
280
     0
281
     0
  0
CLASS
  1
VISUALSTYLE
  2
AcDbVisualStyle
  3
ObjectDBX Classes
 90
     4095
280
     0
281
     0
  0
CLASS
  1
TABLESTYLE
  2
AcDbTableStyle
  3
ObjectDBX Classes
 90
     4095
280
     0
281
     0
  0
CLASS
  1
SUN
  2
AcDbSun
  3
SCENEOE
 90
     1153
280
     0
281
     0
  0
CLASS
  1
RASTERVARIABLES
  2
AcDbRasterVariables
  3
ISM
 90
        0
280
     0
281
     0
  0
CLASS
  1
ACDBDICTIONARYWDFLT
  2
AcDbDictionaryWithDefault
  3
ObjectDBX Classes
 90
        0
280
     0
281
     0
  0
CLASS
  1
DICTIONARYVAR
  2
AcDbDictionaryVar
  3
ObjectDBX Classes
 90
        0
280
     0
281
     0
  0
CLASS
  1
XRECORD
  2
AcDbXrecord
  3
ObjectDBX Classes
 90
        0
280
     0
281
     0
  0
CLASS
  1
LWPOLYLINE
  2
AcDbPolyline
  3
ObjectDBX Classes
 90
        0
280
     0
281
     1
  0
CLASS
  1
HATCH
  2
AcDbHatch
  3
ObjectDBX Classes
 90
        0
280
     0
281
     1
  0
CLASS
  1
IMAGEDEF
  2
AcDbRasterImageDef
  3
ISM
 90
        0
280
     0
281
     0
  0
CLASS
  1
IMAGE
  2
AcDbRasterImage
  3
ISM
 90
      127
280
     0
281
     1
  0
CLASS
  1
IMAGEDEF_REACTOR
  2
AcDbRasterImageDefReactor
  3
ISM
 90
        1
280
     0
281
     0
  0
ENDSEC
  0
SECTION
  2
TABLES
  0
TABLE
  2
VPORT
  5
8
330
0
100
AcDbSymbolTable
 70
     1
  0
VPORT
  5
31
330
8
100
AcDbSymbolTableRecord
100
AcDbViewportTableRecord
  2
*ACTIVE
 70
     0
 10
0.0
 20
0.0
 11
1.0
 21
1.0
 12
1.268772961404983
 22
1.607070562366135
 13
0.0
 23
0.0
 14
10.0
 24
10.0
 15
10.0
 25
10.0
 16
0.0
 26
0.0
 36
1.0
 17
0.0
 27
0.0
 37
0.0
 40
5.508196656412898
 41
2.194827586206896
 42
50.0
 43
0.0
 44
0.0
 50
0.0
 51
0.0
 71
    16
 72
   100
 73
     1
 74
     3
 75
     0
 76
     0
 77
     0
 78
     0
  0
ENDTAB
  0
TABLE
  2
LTYPE
  5
5
330
0
100
AcDbSymbolTable
 70
    25
  0
LTYPE
  5
14
330
5
100
AcDbSymbolTableRecord
100
AcDbLinetypeTableRecord
  2
BYBLOCK
 70
     0
  3

 72
    65
 73
     0
 40
0.0
  0
LTYPE
  5
15
330
5
100
AcDbSymbolTableRecord
100
AcDbLinetypeTableRecord
  2
BYLAYER
 70
     0
  3

 72
    65
 73
     0
 40
0.0
  0
LTYPE
  5
16
330
5
100
AcDbSymbolTableRecord
100
AcDbLinetypeTableRecord
  2
CONTINUOUS
 70
     0
  3
Solid line
 72
    65
 73
     0
 40
0.0
  0
LTYPE
  5
32
330
5
100
AcDbSymbolTableRecord
100
AcDbLinetypeTableRecord
  2
DOT
 70
     0
  3
Dot . . . . . . . . . . . . . . . . . . . . . .
 72
    65
 73
     2
 40
6.35
 49
0.0
 74
     0
 49
-6.35
 74
     0
  0
LTYPE
  5
33
330
5
100
AcDbSymbolTableRecord
100
AcDbLinetypeTableRecord
  2
DOTTINY
 70
     0
  3
Dot (.15x) .....................................
 72
    65
 73
     2
 40
0.9525
 49
0.0
 74
     0
 49
-0.9525
 74
     0
  0
LTYPE
  5
34
330
5
100
AcDbSymbolTableRecord
100
AcDbLinetypeTableRecord
  2
DOT2
 70
     0
  3
Dot (.5x) .....................................
 72
    65
 73
     2
 40
3.175
 49
0.0
 74
     0
 49
-3.175
 74
     0
  0
LTYPE
  5
35
330
5
100
AcDbSymbolTableRecord
100
AcDbLinetypeTableRecord
  2
DOTX2
 70
     0
  3
Dot (2x) .  .  .  .  .  .  .  .  .  .  .  .  .
 72
    65
 73
     2
 40
12.7
 49
0.0
 74
     0
 49
-12.7
 74
     0
  0
LTYPE
  5
36
330
5
100
AcDbSymbolTableRecord
100
AcDbLinetypeTableRecord
  2
DASHED
 70
     0
  3
Dashed _ _ _ _ _ _ _ _ _ _ _ _ _ _ _ _ _
 72
    65
 73
     2
 40
19.05
 49
12.7
 74
     0
 49
-6.35
 74
     0
  0
LTYPE
  5
37
330
5
100
AcDbSymbolTableRecord
100
AcDbLinetypeTableRecord
  2
DASHEDTINY
 70
     0
  3
Dashed (.15x) _ _ _ _ _ _ _ _ _ _ _ _ _ _ _ _ _
 72
    65
 73
     2
 40
2.8575
 49
1.905
 74
     0
 49
-0.9525
 74
     0
  0
LTYPE
  5
38
330
5
100
AcDbSymbolTableRecord
100
AcDbLinetypeTableRecord
  2
DASHED2
 70
     0
  3
Dashed (.5x) _ _ _ _ _ _ _ _ _ _ _ _ _ _ _ _ _
 72
    65
 73
     2
 40
9.524999999999999
 49
6.35
 74
     0
 49
-3.175
 74
     0
  0
LTYPE
  5
39
330
5
100
AcDbSymbolTableRecord
100
AcDbLinetypeTableRecord
  2
DASHEDX2
 70
     0
  3
Dashed (2x) ____  ____  ____  ____  ____  ___
 72
    65
 73
     2
 40
38.09999999999999
 49
25.4
 74
     0
 49
-12.7
 74
     0
  0
LTYPE
  5
3A
330
5
100
AcDbSymbolTableRecord
100
AcDbLinetypeTableRecord
  2
DASHDOT
 70
     0
  3
Dash dot __ . __ . __ . __ . __ . __ . __ . __
 72
    65
 73
     4
 40
25.4
 49
12.7
 74
     0
 49
-6.35
 74
     0
 49
0.0
 74
     0
 49
-6.35
 74
     0
  0
LTYPE
  5
3B
330
5
100
AcDbSymbolTableRecord
100
AcDbLinetypeTableRecord
  2
DASHDOTTINY
 70
     0
  3
Dash dot (.15x) _._._._._._._._._._._._._._._.
 72
    65
 73
     4
 40
3.81
 49
1.905
 74
     0
 49
-0.9525
 74
     0
 49
0.0
 74
     0
 49
-0.9525
 74
     0
  0
LTYPE
  5
3C
330
5
100
AcDbSymbolTableRecord
100
AcDbLinetypeTableRecord
  2
DASHDOT2
 70
     0
  3
Dash dot (.5x) _._._._._._._._._._._._._._._.
 72
    65
 73
     4
 40
12.7
 49
6.35
 74
     0
 49
-3.175
 74
     0
 49
0.0
 74
     0
 49
-3.175
 74
     0
  0
LTYPE
  5
3D
330
5
100
AcDbSymbolTableRecord
100
AcDbLinetypeTableRecord
  2
DASHDOTX2
 70
     0
  3
Dash dot (2x) ____  .  ____  .  ____  .  ___
 72
    65
 73
     4
 40
50.8
 49
25.4
 74
     0
 49
-12.7
 74
     0
 49
0.0
 74
     0
 49
-12.7
 74
     0
  0
LTYPE
  5
3E
330
5
100
AcDbSymbolTableRecord
100
AcDbLinetypeTableRecord
  2
DIVIDE
 70
     0
  3
Divide ____ . . ____ . . ____ . . ____ . . ____
 72
    65
 73
     6
 40
31.75
 49
12.7
 74
     0
 49
-6.35
 74
     0
 49
0.0
 74
     0
 49
-6.35
 74
     0
 49
0.0
 74
     0
 49
-6.35
 74
     0
  0
LTYPE
  5
3F
330
5
100
AcDbSymbolTableRecord
100
AcDbLinetypeTableRecord
  2
DIVIDETINY
 70
     0
  3
Divide (.15x) __..__..__..__..__..__..__..__.._
 72
    65
 73
     6
 40
4.7625
 49
1.905
 74
     0
 49
-0.9525
 74
     0
 49
0.0
 74
     0
 49
-0.9525
 74
     0
 49
0.0
 74
     0
 49
-0.9525
 74
     0
  0
LTYPE
  5
40
330
5
100
AcDbSymbolTableRecord
100
AcDbLinetypeTableRecord
  2
DIVIDE2
 70
     0
  3
Divide (.5x) __..__..__..__..__..__..__..__.._
 72
    65
 73
     6
 40
15.875
 49
6.35
 74
     0
 49
-3.175
 74
     0
 49
0.0
 74
     0
 49
-3.175
 74
     0
 49
0.0
 74
     0
 49
-3.175
 74
     0
  0
LTYPE
  5
41
330
5
100
AcDbSymbolTableRecord
100
AcDbLinetypeTableRecord
  2
DIVIDEX2
 70
     0
  3
Divide (2x) ________  .  .  ________  .  .  _
 72
    65
 73
     6
 40
63.5
 49
25.4
 74
     0
 49
-12.7
 74
     0
 49
0.0
 74
     0
 49
-12.7
 74
     0
 49
0.0
 74
     0
 49
-12.7
 74
     0
  0
LTYPE
  5
42
330
5
100
AcDbSymbolTableRecord
100
AcDbLinetypeTableRecord
  2
BORDER
 70
     0
  3
Border __ __ . __ __ . __ __ . __ __ . __ __ .
 72
    65
 73
     6
 40
44.45
 49
12.7
 74
     0
 49
-6.35
 74
     0
 49
12.7
 74
     0
 49
-6.35
 74
     0
 49
0.0
 74
     0
 49
-6.35
 74
     0
  0
LTYPE
  5
43
330
5
100
AcDbSymbolTableRecord
100
AcDbLinetypeTableRecord
  2
BORDERTINY
 70
     0
  3
Border (.15x) __.__.__.__.__.__.__.__.__.__.__.
 72
    65
 73
     6
 40
6.6675
 49
1.905
 74
     0
 49
-0.9525
 74
     0
 49
1.905
 74
     0
 49
-0.9525
 74
     0
 49
0.0
 74
     0
 49
-0.9525
 74
     0
  0
LTYPE
  5
44
330
5
100
AcDbSymbolTableRecord
100
AcDbLinetypeTableRecord
  2
BORDER2
 70
     0
  3
Border (.5x) __.__.__.__.__.__.__.__.__.__.__.
 72
    65
 73
     6
 40
22.225
 49
6.35
 74
     0
 49
-3.175
 74
     0
 49
6.35
 74
     0
 49
-3.175
 74
     0
 49
0.0
 74
     0
 49
-3.175
 74
     0
  0
LTYPE
  5
45
330
5
100
AcDbSymbolTableRecord
100
AcDbLinetypeTableRecord
  2
BORDERX2
 70
     0
  3
Border (2x) ____  ____  .  ____  ____  .  ___
 72
    65
 73
     6
 40
88.89999999999999
 49
25.4
 74
     0
 49
-12.7
 74
     0
 49
25.4
 74
     0
 49
-12.7
 74
     0
 49
0.0
 74
     0
 49
-12.7
 74
     0
  0
LTYPE
  5
46
330
5
100
AcDbSymbolTableRecord
100
AcDbLinetypeTableRecord
  2
CENTER
 70
     0
  3
Center ____ _ ____ _ ____ _ ____ _ ____ _ ____
 72
    65
 73
     4
 40
50.8
 49
31.75
 74
     0
 49
-6.35
 74
     0
 49
6.35
 74
     0
 49
-6.35
 74
     0
  0
LTYPE
  5
47
330
5
100
AcDbSymbolTableRecord
100
AcDbLinetypeTableRecord
  2
CENTERTINY
 70
     0
  3
Center (.15x) ___ _ ___ _ ___ _ ___ _ ___ _ ___
 72
    65
 73
     4
 40
7.619999999999999
 49
4.7625
 74
     0
 49
-0.9525
 74
     0
 49
0.9525
 74
     0
 49
-0.9525
 74
     0
  0
LTYPE
  5
48
330
5
100
AcDbSymbolTableRecord
100
AcDbLinetypeTableRecord
  2
CENTER2
 70
     0
  3
Center (.5x) ___ _ ___ _ ___ _ ___ _ ___ _ ___
 72
    65
 73
     4
 40
28.575
 49
19.05
 74
     0
 49
-3.175
 74
     0
 49
3.175
 74
     0
 49
-3.175
 74
     0
  0
LTYPE
  5
49
330
5
100
AcDbSymbolTableRecord
100
AcDbLinetypeTableRecord
  2
CENTERX2
 70
     0
  3
Center (2x) ________  __  ________  __  _____
 72
    65
 73
     4
 40
101.6
 49
63.5
 74
     0
 49
-12.7
 74
     0
 49
12.7
 74
     0
 49
-12.7
 74
     0
  0
ENDTAB
  0
TABLE
  2
LAYER
  5
2
330
0
100
AcDbSymbolTable
 70
     2
  0
LAYER
  5
10
330
2
100
AcDbSymbolTableRecord
100
AcDbLayerTableRecord
  2
0
 70
     0
 62
     7
  6
CONTINUOUS
  0
LAYER
  5
202FA
330
2
100
AcDbSymbolTableRecord
100
AcDbLayerTableRecord
  2
DEFPOINTS
 70
     0
 62
     7
  6
CONTINUOUS
  0
ENDTAB
  0
TABLE
  2
STYLE
  5
3
330
0
100
AcDbSymbolTable
 70
     1
  0
STYLE
  5
4A
330
3
100
AcDbSymbolTableRecord
100
AcDbTextStyleTableRecord
  2
STANDARD
 70
     0
 40
0.125
 41
1.0
 50
0.0
 71
     0
 42
1.0
  3
arial.ttf
  4

1001
ACAD
1000
Arial
1071
        0
  0
ENDTAB
  0
TABLE
  2
VIEW
  5
6
330
0
100
AcDbSymbolTable
 70
     0
  0
ENDTAB
  0
TABLE
  2
UCS
  5
7
330
0
100
AcDbSymbolTable
 70
     0
  0
ENDTAB
  0
TABLE
  2
APPID
  5
9
330
0
100
AcDbSymbolTable
 70
     2
  0
APPID
  5
12
330
9
100
AcDbSymbolTableRecord
100
AcDbRegAppTableRecord
  2
ACAD
 70
     0
  0
APPID
  5
4B
330
9
100
AcDbSymbolTableRecord
100
AcDbRegAppTableRecord
  2
LIBRECAD
 70
     0
  0
ENDTAB
  0
TABLE
  2
DIMSTYLE
  5
A
330
0
100
AcDbSymbolTable
 70
     2
  0
DIMSTYLE
105
4C
330
A
100
AcDbSymbolTableRecord
100
AcDbDimStyleTableRecord
  2
STANDARD
 70
     0
  3

  4

  5

  6

  7

 40
1.0
 41
1.0
 42
0.025
 43
0.38
 44
0.05
 45
0.0
 46
0.0
 47
0.0
 48
0.0
140
1.0
141
0.09
142
0.0
143
25.4
144
1.0
145
0.0
146
1.0
147
0.025
 71
     0
 72
     0
 73
     0
 74
     1
 75
     0
 76
     0
 77
     0
 78
     8
170
     0
171
     2
172
     0
173
     0
174
     0
175
     0
176
     0
177
     0
178
     0
270
     5
271
     4
272
     4
273
     2
274
     2
340
0
275
     0
280
     0
281
     0
282
     0
283
     1
284
     0
285
     0
286
     0
287
     3
288
     0
  0
DIMSTYLE
105
20063
330
A
100
AcDbSymbolTableRecord
100
AcDbDimStyleTableRecord
  2
THREE_QUARTER_INCH_SCALE
 70
     0
  3
"
  4

  5
ARCHTICK
  6

  7

 40
1.0
 41
0.75
 42
1.5
 43
2.0
 44
1.0
 45
0.0
 46
0.0
 47
0.0
 48
0.0
140
1.5
141
2.0
142
0.0
143
25.4
144
1.0
145
0.0
146
1.0
147
1.0
 71
     0
 72
     0
 73
     0
 74
     0
 75
     0
 76
     0
 77
     1
 78
     0
170
     0
171
     2
172
     0
173
     0
174
     1
175
     0
176
     0
177
     0
178
     0
270
     2
271
     4
272
     4
273
     2
274
     2
340
4A
275
     0
280
     0
281
     0
282
     0
283
     1
284
     0
285
     0
286
     0
287
     3
288
     0
  0
ENDTAB
  0
TABLE
  2
BLOCK_RECORD
  5
1
330
0
100
AcDbSymbolTable
 70
     7
  0
BLOCK_RECORD
  5
1F
330
1
100
AcDbSymbolTableRecord
100
AcDbBlockTableRecord
  2
*MODEL_SPACE
  0
BLOCK_RECORD
  5
1E
330
1
100
AcDbSymbolTableRecord
100
AcDbBlockTableRecord
  2
*PAPER_SPACE
  0
BLOCK_RECORD
  5
20065
330
1
100
AcDbSymbolTableRecord
100
AcDbBlockTableRecord
  2
_ARCHTICK
  0
BLOCK_RECORD
  5
20094
330
1
100
AcDbSymbolTableRecord
100
AcDbBlockTableRecord
  2
GH070
  0
BLOCK_RECORD
  5
200B3
330
1
100
AcDbSymbolTableRecord
100
AcDbBlockTableRecord
  2
TEXT
  0
BLOCK_RECORD
  5
2016E
330
1
100
AcDbSymbolTableRecord
100
AcDbBlockTableRecord
  2
GH300
  0
BLOCK_RECORD
  5
20312
330
1
100
AcDbSymbolTableRecord
100
AcDbBlockTableRecord
  2
GH201
  0
BLOCK_RECORD
  5
20392
330
1
100
AcDbSymbolTableRecord
100
AcDbBlockTableRecord
  2
GH850
  0
BLOCK_RECORD
  5
20414
330
1
100
AcDbSymbolTableRecord
100
AcDbBlockTableRecord
  2
GH100
  0
ENDTAB
  0
ENDSEC
  0
SECTION
  2
BLOCKS
  0
BLOCK
  5
20
330
1F
100
AcDbEntity
  8
0
100
AcDbBlockBegin
  2
*MODEL_SPACE
 70
     0
 10
0.0
 20
0.0
 30
0.0
  3
*MODEL_SPACE
  1

  0
ENDBLK
  5
21
330
1F
100
AcDbEntity
  8
0
100
AcDbBlockEnd
  0
BLOCK
  5
1C
330
1E
100
AcDbEntity
 67
     1
  8
0
100
AcDbBlockBegin
  2
*PAPER_SPACE
 70
     0
 10
0.0
 20
0.0
 30
0.0
  3
*PAPER_SPACE
  1

  0
ENDBLK
  5
1D
330
1E
100
AcDbEntity
 67
     1
  8
0
100
AcDbBlockEnd
  0
BLOCK
  5
20066
330
20065
100
AcDbEntity
  8
0
100
AcDbBlockBegin
  2
_ARCHTICK
 70
     0
 10
0.0
 20
0.0
 30
0.0
  3
_ARCHTICK
  1
_ARCHTICK
  0
LWPOLYLINE
  5
20067
330
20065
100
AcDbEntity
  8
0
  6
BYBLOCK
 62
     0
100
AcDbPolyline
 90
        2
 70
     0
 43
0.15
 10
-0.5
 20
-0.5
 10
0.5
 20
0.5
  0
ENDBLK
  5
20068
330
20065
100
AcDbEntity
  8
0
100
AcDbBlockEnd
  0
BLOCK
  5
200A0
330
20094
100
AcDbEntity
  8
0
100
AcDbBlockBegin
  2
GH070
 70
     0
 10
0.0
 20
0.0
 30
0.0
  3
GH070
  1
GH070
  0
LINE
  5
20095
330
20094
100
AcDbEntity
  8
0
 62
     0
100
AcDbLine
 10
-0.0000000000000002
 20
0.000044031856177
 30
0.0
 11
-0.0000000000000002
 21
1.500044031856177
 31
0.0
  0
LINE
  5
20096
330
20094
100
AcDbEntity
  8
0
 62
     0
100
AcDbLine
 10
0.7499999999999998
 20
0.0000440318561767
 30
0.0
 11
0.7499999999999998
 21
0.7500440318561767
 31
0.0
  0
LINE
  5
20097
330
20094
100
AcDbEntity
  8
0
 62
     0
100
AcDbLine
 10
1.25
 20
0.7500440318561767
 30
0.0
 11
0.7499999999999998
 21
0.7500440318561767
 31
0.0
  0
LINE
  5
20098
330
20094
100
AcDbEntity
  8
0
 62
     0
100
AcDbLine
 10
0.7499999999999998
 20
0.0000440318561767
 30
0.0
 11
-0.0000000000000002
 21
0.000044031856177
 31
0.0
  0
LINE
  5
20099
330
20094
100
AcDbEntity
  8
0
 62
     0
100
AcDbLine
 10
1.25
 20
0.7500440318561767
 30
0.0
 11
1.25
 21
0.914020192101886
 31
0.0
  0
LINE
  5
2009A
330
20094
100
AcDbEntity
  8
0
 62
     0
100
AcDbLine
 10
0.5654246168820103
 20
1.500044031856177
 30
0.0
 11
-0.0000000000000002
 21
1.500044031856177
 31
0.0
  0
LINE
  5
2009B
330
20094
100
AcDbEntity
  8
0
 62
     0
100
AcDbLine
 10
0.5966746466843328
 20
1.37985092112939
 30
0.0
 11
0.5966746466843328
 21
1.468794002053855
 31
0.0
  0
ARC
  5
2009C
330
20094
100
AcDbEntity
  8
0
 62
     0
100
AcDbCircle
 10
0.7750099496043317
 20
1.266577904310832
 30
0.0
 40
0.2112682101186666
100
AcDbArc
 50
38.16410794094814
 51
147.577561648865
  0
ARC
  5
2009D
330
20094
100
AcDbEntity
  8
0
 62
     0
100
AcDbCircle
 10
0.3148368756712878
 20
1.031738726915941
 30
0.0
 40
0.7250757226475516
100
AcDbArc
 50
6.243646316154902
 51
30.26014535800208
  0
ARC
  5
2009E
330
20094
100
AcDbEntity
  8
0
 62
     0
100
AcDbCircle
 10
1.248899299308056
 20
1.128015077769722
 30
0.0
 40
0.2139977164224046
100
AcDbArc
 50
184.6690791076244
 51
270.2947030617309
  0
ARC
  5
2009F
330
20094
100
AcDbEntity
  8
0
 62
     0
100
AcDbCircle
 10
0.5654246317831718
 20
1.468794016955016
 30
0.0
 40
0.0312500149011646
100
AcDbArc
 50
359.9999726792565
 51
90.00002732074427
  0
ENDBLK
  5
200A1
330
20094
100
AcDbEntity
  8
0
100
AcDbBlockEnd
  0
BLOCK
  5
200B5
330
200B3
100
AcDbEntity
  8
0
100
AcDbBlockBegin
  2
TEXT
 70
     0
 10
0.0
 20
0.0
 30
0.0
  3
TEXT
  1
TEXT
  0
MTEXT
  5
20329
330
200B3
100
AcDbEntity
  8
0
100
AcDbMText
 10
1.287373194929577
 20
0.4833997264342562
 30
0.0
 40
0.0625
 41
0.7806926960609331
 71
     1
 72
     5
  1
{\C0;Casing\PGH 100\P1 1/8" x 3 9/16"\PGeneral Hardwood\PCompany}
1001
ACAD
1000
ACAD_MTEXT_DEFINED_HEIGHT_BEGIN
1070
    46
1040
0.4833541666666668
1000
ACAD_MTEXT_DEFINED_HEIGHT_END
  0
ENDBLK
  5
200B6
330
200B3
100
AcDbEntity
  8
0
100
AcDbBlockEnd
  0
BLOCK
  5
2016F
330
2016E
100
AcDbEntity
  8
0
100
AcDbBlockBegin
  2
GH300
 70
     0
 10
0.0
 20
0.0
 30
0.0
  3
GH300
  1
GH300
  0
LINE
  5
20170
330
2016E
100
AcDbEntity
  8
0
  6
BYBLOCK
 62
     0
100
AcDbLine
 10
3.123361159229148
 20
3.188206027586848
 30
0.0
 11
2.334091542641669
 21
3.188206027586848
 31
0.0
  0
LINE
  5
20171
330
2016E
100
AcDbEntity
  8
0
  6
BYBLOCK
 62
     0
100
AcDbLine
 10
1.389400389767488
 20
1.313206027586848
 30
0.0
 11
1.099835478466069
 21
1.313206027586848
 31
0.0
  0
LINE
  5
20172
330
2016E
100
AcDbEntity
  8
0
  6
BYBLOCK
 62
     0
100
AcDbLine
 10
1.060861159229148
 20
1.27887888547469
 30
0.0
 11
1.060861159229148
 21
0.5495619788836485
 31
0.0
  0
LINE
  5
20173
330
2016E
100
AcDbEntity
  8
0
  6
BYBLOCK
 62
     0
100
AcDbLine
 10
0.2949340344829494
 20
0.0183546365325675
 30
0.0
 11
0.2949340344829494
 21
0.1078773879509889
 31
0.0
  0
LINE
  5
20174
330
2016E
100
AcDbEntity
  8
0
  6
BYBLOCK
 62
     0
100
AcDbLine
 10
0.6083037670269391
 20
0.3133697325439897
 30
0.0
 11
0.6291573281486187
 21
0.3133697325439897
 31
0.0
  0
LINE
  5
20175
330
2016E
100
AcDbEntity
  8
0
  6
BYBLOCK
 62
     0
100
AcDbLine
 10
1.49481739689076
 20
1.610180250025358
 30
0.0
 11
1.43652645799833
 21
1.351883743546537
 31
0.0
  0
LINE
  5
20176
330
2016E
100
AcDbEntity
  8
0
  6
BYBLOCK
 62
     0
100
AcDbLine
 10
0.0
 20
0.0
 30
0.0
 11
0.0
 21
0.8541144849451889
 31
0.0
  0
LINE
  5
20177
330
2016E
100
AcDbEntity
  8
0
  6
BYBLOCK
 62
     0
100
AcDbLine
 10
0.0
 20
0.0
 30
0.0
 11
0.2769700479440402
 21
0.0
 31
0.0
  0
LINE
  5
20178
330
2016E
100
AcDbEntity
  8
0
  6
BYBLOCK
 62
     0
100
AcDbLine
 10
0.3303944316414587
 20
0.1257060275868476
 30
0.0
 11
0.31293428694093
 21
0.1257060275868476
 31
0.0
  0
LINE
  5
20179
330
2016E
100
AcDbEntity
  8
0
  6
BYBLOCK
 62
     0
100
AcDbLine
 10
2.890689999700299
 20
2.858538091658787
 30
0.0
 11
2.890689999700299
 21
2.836028454595567
 31
0.0
  0
LINE
  5
2017A
330
2016E
100
AcDbEntity
  8
0
  6
BYBLOCK
 62
     0
100
AcDbLine
 10
3.05312180718051
 20
2.875706027586848
 30
0.0
 11
2.90494716419736
 21
2.875706027586848
 31
0.0
  0
LINE
  5
2017B
330
2016E
100
AcDbEntity
  8
0
  6
BYBLOCK
 62
     0
100
AcDbLine
 10
3.123361159229148
 20
3.188206027586848
 30
0.0
 11
3.123361159229148
 21
2.948144162314229
 31
0.0
  0
ARC
  5
2017C
330
2016E
100
AcDbEntity
  8
0
  6
BYBLOCK
 62
     0
100
AcDbCircle
 10
3.048392848159541
 20
2.950564166982652
 30
0.0
 40
0.0750073602203441
100
AcDbArc
 50
273.6147014465819
 51
358.1511131687512
  0
ARC
  5
2017D
330
2016E
100
AcDbEntity
  8
0
  6
BYBLOCK
 62
     0
100
AcDbCircle
 10
2.907124896436958
 20
2.859393602510988
 30
0.0
 40
0.0164571482816116
100
AcDbArc
 50
97.60410672867435
 51
182.979815466513
  0
ARC
  5
2017E
330
2016E
100
AcDbEntity
  8
0
  6
BYBLOCK
 62
     0
100
AcDbCircle
 10
2.802413325177444
 20
2.835197090011015
 30
0.0
 40
0.088280589213526
100
AcDbArc
 50
280.1797878556739
 51
0.5395793849295409
  0
ARC
  5
2017F
330
2016E
100
AcDbEntity
  8
0
  6
BYBLOCK
 62
     0
100
AcDbCircle
 10
2.876199634641562
 20
2.045847890971668
 30
0.0
 40
0.7048638518857987
100
AcDbArc
 50
94.73493512905837
 51
168.3480839173799
  0
ARC
  5
20180
330
2016E
100
AcDbEntity
  8
0
  6
BYBLOCK
 62
     0
100
AcDbCircle
 10
1.516251163344442
 20
2.305229355890361
 30
0.0
 40
0.6797587851259779
100
AcDbArc
 50
269.8402974233537
 51
350.0869076549527
  0
ARC
  5
20181
330
2016E
100
AcDbEntity
  8
0
  6
BYBLOCK
 62
     0
100
AcDbCircle
 10
1.388255443547973
 20
1.362649816486712
 30
0.0
 40
0.0494570436097855
100
AcDbArc
 50
271.326533945521
 51
347.4268823353337
  0
ARC
  5
20182
330
2016E
100
AcDbEntity
  8
0
  6
BYBLOCK
 62
     0
100
AcDbCircle
 10
1.101017927563433
 20
1.272574615078632
 30
0.0
 40
0.0406486145923781
100
AcDbArc
 50
91.6669424533053
 51
171.0778744868593
  0
ARC
  5
20183
330
2016E
100
AcDbEntity
  8
0
  6
BYBLOCK
 62
     0
100
AcDbCircle
 10
0.9412277205718489
 20
0.5581421629663019
 30
0.0
 40
0.1199407320465561
100
AcDbArc
 50
269.4983772836481
 51
355.8977355032912
  0
LINE
  5
20184
330
2016E
100
AcDbEntity
  8
0
  6
BYBLOCK
 62
     0
100
AcDbLine
 10
0.7713990666827009
 20
0.4382060275868405
 30
0.0
 11
0.9401776567151039
 21
0.4382060275868405
 31
0.0
  0
ARC
  5
20185
330
2016E
100
AcDbEntity
  8
0
  6
BYBLOCK
 62
     0
100
AcDbCircle
 10
0.7736641787188212
 20
0.4116999592485691
 30
0.0
 40
0.0266026763933467
100
AcDbArc
 50
94.8844216829498
 51
172.1095051541148
  0
ARC
  5
20186
330
2016E
100
AcDbEntity
  8
0
  6
BYBLOCK
 62
     0
100
AcDbCircle
 10
0.6197872400676658
 20
0.4436644389083106
 30
0.0
 40
0.1306311948089452
100
AcDbArc
 50
274.1133202704497
 51
347.4826163588629
  0
ARC
  5
20187
330
2016E
100
AcDbEntity
  8
0
  6
BYBLOCK
 62
     0
100
AcDbCircle
 10
0.6044973248686354
 20
0.1567825593955625
 30
0.0
 40
0.1566334312862921
100
AcDbArc
 50
88.60748410480431
 51
155.5147097430315
  0
ARC
  5
20188
330
2016E
100
AcDbEntity
  8
0
  6
BYBLOCK
 62
     0
100
AcDbCircle
 10
0.3261436683669814
 20
0.2696741209637104
 30
0.0
 40
0.1440308331538332
100
AcDbArc
 50
271.6912084705137
 51
340.5443678682
  0
ARC
  5
20189
330
2016E
100
AcDbEntity
  8
0
  6
BYBLOCK
 62
     0
100
AcDbCircle
 10
0.3137033653071128
 20
0.1069284679133595
 30
0.0
 40
0.0187933027651955
100
AcDbArc
 50
92.34537023788742
 51
177.1057646060847
  0
ARC
  5
2018A
330
2016E
100
AcDbEntity
  8
0
  6
BYBLOCK
 62
     0
100
AcDbCircle
 10
0.2772028857212518
 20
0.0177402615428015
 30
0.0
 40
0.017741789454214
100
AcDbArc
 50
269.2480462607928
 51
1.984474737027347
  0
LINE
  5
2018B
330
2016E
100
AcDbEntity
  8
0
  6
BYBLOCK
 62
     0
100
AcDbLine
 10
0.0
 20
0.8541144849451889
 30
0.0
 11
2.334091542641669
 21
3.188206027586848
 31
0.0
  0
ARC
  5
2018C
330
2016E
100
AcDbEntity
  8
0
  6
BYBLOCK
 62
     0
100
AcDbCircle
 10
1.526985389661614
 20
1.589209328953704
 30
0.0
 40
0.0383999907486873
100
AcDbArc
 50
109.2007325653641
 51
146.8989120477313
  0
ENDBLK
  5
2018D
330
2016E
100
AcDbEntity
  8
0
100
AcDbBlockEnd
  0
BLOCK
  5
20326
330
20312
100
AcDbEntity
  8
0
100
AcDbBlockBegin
  2
GH201
 70
     0
 10
0.0
 20
0.0
 30
0.0
  3
GH201
  1
GH201
  0
LINE
  5
20313
330
20312
100
AcDbEntity
  8
0
 62
     0
100
AcDbLine
 10
6.895761460521322
 20
0.3829664625452298
 30
0.0
 11
7.895761460521322
 21
0.3829664625452298
 31
0.0
  0
LINE
  5
20314
330
20312
100
AcDbEntity
  8
0
 62
     0
100
AcDbLine
 10
6.895761460521322
 20
3.32046646254523
 30
0.0
 11
6.895761460521322
 21
4.82046646254523
 31
0.0
  0
LINE
  5
20315
330
20312
100
AcDbEntity
  8
0
 62
     0
100
AcDbLine
 10
6.895761460521322
 20
1.50796646254523
 30
0.0
 11
6.958261460521322
 21
1.57046646254523
 31
0.0
  0
LINE
  5
20316
330
20312
100
AcDbEntity
  8
0
 62
     0
100
AcDbLine
 10
6.895761460521322
 20
4.82046646254523
 30
0.0
 11
7.254508976949555
 21
4.82046646254523
 31
0.0
  0
LINE
  5
20317
330
20312
100
AcDbEntity
  8
0
 62
     0
100
AcDbLine
 10
6.958261460521322
 20
1.57046646254523
 30
0.0
 11
6.958261460521322
 21
3.25796646254523
 31
0.0
  0
ARC
  5
20318
330
20312
100
AcDbEntity
  8
0
 62
     0
100
AcDbCircle
 10
8.542939067456793
 20
2.941701983965185
 30
0.0
 40
1.018893354276599
100
AcDbArc
 50
193.9711253351572
 51
223.4202580476711
  0
ARC
  5
20319
330
20312
100
AcDbEntity
  8
0
 62
     0
100
AcDbCircle
 10
7.7338803765453
 20
1.670303585616591
 30
0.0
 40
0.1665555262386978
100
AcDbArc
 50
13.60642378221336
 51
69.36290795073059
  0
ARC
  5
2031A
330
20312
100
AcDbEntity
  8
0
 62
     0
100
AcDbCircle
 10
7.694192417588754
 20
4.752529208530898
 30
0.0
 40
0.4449011108722162
100
AcDbArc
 50
171.2164605886613
 51
232.853834229074
  0
ARC
  5
2031B
330
20312
100
AcDbEntity
  8
0
 62
     0
100
AcDbCircle
 10
7.443166872590824
 20
4.106563666421794
 30
0.0
 40
0.0175851814201532
100
AcDbArc
 50
145.1919795799768
 51
251.5663697938671
  0
ARC
  5
2031C
330
20312
100
AcDbEntity
  8
0
 62
     0
100
AcDbCircle
 10
7.517748840522474
 20
2.058320482085157
 30
0.0
 40
0.3388362359030222
100
AcDbArc
 50
322.0874317582364
 51
32.69957843498423
  0
ARC
  5
2031D
330
20312
100
AcDbEntity
  8
0
 62
     0
100
AcDbCircle
 10
7.459588732568639
 20
2.888725544497846
 30
0.0
 40
0.2149529413583375
100
AcDbArc
 50
296.1095438910968
 51
75.46928286686054
  0
LINE
  5
2031E
330
20312
100
AcDbEntity
  8
0
 62
     0
100
AcDbLine
 10
6.895761460521322
 20
0.3829664625452298
 30
0.0
 11
6.895761460521322
 21
1.50796646254523
 31
0.0
  0
ARC
  5
2031F
330
20312
100
AcDbEntity
  8
0
 62
     0
100
AcDbCircle
 10
7.404109570746167
 20
3.985457885305197
 30
0.0
 40
0.1096639051934174
100
AcDbArc
 50
356.1052817101993
 51
72.21480305377985
  0
ARC
  5
20320
330
20312
100
AcDbEntity
  8
0
 62
     0
100
AcDbCircle
 10
7.273734621689787
 20
4.255511352557287
 30
0.0
 40
0.208131886591804
100
AcDbArc
 50
318.1324228750425
 51
43.16683377592364
  0
LINE
  5
20321
330
20312
100
AcDbEntity
  8
0
 62
     0
100
AcDbLine
 10
7.51352021202685
 20
3.978009148712968
 30
0.0
 11
7.51352021202685
 21
3.09680284388932
 31
0.0
  0
LINE
  5
20322
330
20312
100
AcDbEntity
  8
0
 62
     0
100
AcDbLine
 10
7.895761460521322
 20
0.3829664625452298
 30
0.0
 11
7.895761460521322
 21
1.709485953735398
 31
0.0
  0
LINE
  5
20323
330
20312
100
AcDbEntity
  8
0
 62
     0
100
AcDbLine
 10
6.895761460521322
 20
3.32046646254523
 30
0.0
 11
6.958261460521322
 21
3.25796646254523
 31
0.0
  0
ARC
  5
20324
330
20312
100
AcDbEntity
  8
0
 62
     0
100
AcDbCircle
 10
7.799476498817635
 20
1.841484492588354
 30
0.0
 40
0.0167933113590797
100
AcDbArc
 50
149.0554492655746
 51
245.7623331337322
  0
ARC
  5
20325
330
20312
100
AcDbEntity
  8
0
 62
     0
100
AcDbCircle
 10
7.7338803765453
 20
1.670303585616591
 30
0.0
 40
0.1665555262386978
100
AcDbArc
 50
345.9189345708754
 51
346.3935762177866
  0
ENDBLK
  5
20327
330
20312
100
AcDbEntity
  8
0
100
AcDbBlockEnd
  0
BLOCK
  5
203AB
330
20392
100
AcDbEntity
  8
0
100
AcDbBlockBegin
  2
GH850
 70
     0
 10
0.0
 20
0.0
 30
0.0
  3
GH850
  1
GH850
  0
LINE
  5
20393
330
20392
100
AcDbEntity
  8
0
 62
     0
100
AcDbLine
 10
5.313957025032798
 20
2.114592327626687
 30
0.0
 11
5.284456516360678
 21
2.243856586877424
 31
0.0
  0
LINE
  5
20394
330
20392
100
AcDbEntity
  8
0
 62
     0
100
AcDbLine
 10
4.594037180752311
 20
0.8820758935319098
 30
0.0
 11
4.594037180752311
 21
3.564451224527615
 31
0.0
  0
LINE
  5
20395
330
20392
100
AcDbEntity
  8
0
 62
     0
100
AcDbLine
 10
5.344037180752311
 20
0.8820758935319066
 30
0.0
 11
5.344037180752311
 21
1.308710417534322
 31
0.0
  0
LINE
  5
20396
330
20392
100
AcDbEntity
  8
0
 62
     0
100
AcDbLine
 10
4.881001772708731
 20
1.126951224527615
 30
0.0
 11
4.881001772708731
 21
0.8820758935319066
 31
0.0
  0
LINE
  5
20397
330
20392
100
AcDbEntity
  8
0
 62
     0
100
AcDbLine
 10
4.881001772708731
 20
1.126951224527615
 30
0.0
 11
5.086337829979275
 21
1.126951224527615
 31
0.0
  0
LINE
  5
20398
330
20392
100
AcDbEntity
  8
0
 62
     0
100
AcDbLine
 10
4.991713008961738
 20
1.582542483658477
 30
0.0
 11
4.991713008961738
 21
1.448167854876002
 31
0.0
  0
LINE
  5
20399
330
20392
100
AcDbEntity
  8
0
 62
     0
100
AcDbLine
 10
4.664710464835516
 20
0.8144512245276152
 30
0.0
 11
4.810328488625527
 21
0.8144512245276152
 31
0.0
  0
LINE
  5
2039A
330
20392
100
AcDbEntity
  8
0
 62
     0
100
AcDbLine
 10
5.086337829979275
 20
1.126951224527615
 30
0.0
 11
5.086337829979275
 21
0.8820758935319098
 31
0.0
  0
LINE
  5
2039B
330
20392
100
AcDbEntity
  8
0
 62
     0
100
AcDbLine
 10
4.844037180752311
 20
3.500790986788867
 30
0.0
 11
4.844037180752311
 21
3.315161979677769
 31
0.0
  0
LINE
  5
2039C
330
20392
100
AcDbEntity
  8
0
 62
     0
100
AcDbLine
 10
4.844037180752311
 20
3.315161979677769
 30
0.0
 11
4.929516814432771
 21
3.315161979677769
 31
0.0
  0
LINE
  5
2039D
330
20392
100
AcDbEntity
  8
0
 62
     0
100
AcDbLine
 10
4.974002614734693
 20
3.255732646582289
 30
0.0
 11
4.974002614734693
 21
3.067685714495737
 31
0.0
  0
ARC
  5
2039E
330
20392
100
AcDbEntity
  8
0
 62
     0
100
AcDbCircle
 10
4.775561267176895
 20
3.495828188153439
 30
0.0
 40
0.0686555176972951
100
AcDbArc
 50
4.145269577801561
 51
88.23748067793143
  0
LINE
  5
2039F
330
20392
100
AcDbEntity
  8
0
 62
     0
100
AcDbLine
 10
4.594037180752311
 20
3.564451224527615
 30
0.0
 11
4.777672899027405
 21
3.564451224527615
 31
0.0
  0
ARC
  5
203A0
330
20392
100
AcDbEntity
  8
0
 62
     0
100
AcDbCircle
 10
4.919781267674423
 20
3.261509861217393
 30
0.0
 40
0.0545282558493324
100
AcDbArc
 50
353.9181542636692
 51
79.71519267772702
  0
ARC
  5
203A1
330
20392
100
AcDbEntity
  8
0
 62
     0
100
AcDbCircle
 10
5.698329176102353
 20
3.07607952000694
 30
0.0
 40
0.7243751952363215
100
AcDbArc
 50
180.6639382413307
 51
216.5494171078471
  0
ARC
  5
203A2
330
20392
100
AcDbEntity
  8
0
 62
     0
100
AcDbCircle
 10
4.164354248503306
 20
2.00991756236783
 30
0.0
 40
1.144271190604626
100
AcDbArc
 50
11.79693513264901
 51
33.6935319896332
  0
LINE
  5
203A3
330
20392
100
AcDbEntity
  8
0
 62
     0
100
AcDbLine
 10
5.344037180752311
 20
1.308710417534322
 30
0.0
 11
5.204579743410632
 21
1.448167854876002
 31
0.0
  0
ARC
  5
203A4
330
20392
100
AcDbEntity
  8
0
 62
     0
100
AcDbCircle
 10
4.894263476313084
 20
2.005175160830142
 30
0.0
 40
0.4337220206845974
100
AcDbArc
 50
282.9841795465684
 51
14.6121682597576
  0
LINE
  5
203A5
330
20392
100
AcDbEntity
  8
0
 62
     0
100
AcDbLine
 10
4.991713008961738
 20
1.448167854876002
 30
0.0
 11
5.204579743410632
 21
1.448167854876002
 31
0.0
  0
ARC
  5
203A6
330
20392
100
AcDbEntity
  8
0
 62
     0
100
AcDbCircle
 10
5.273244291788369
 20
0.885318223372854
 30
0.0
 40
0.0708670997759791
100
AcDbArc
 50
270.0967001351884
 51
357.3776732909305
  0
ARC
  5
203A7
330
20392
100
AcDbEntity
  8
0
 62
     0
100
AcDbCircle
 10
4.664830069716254
 20
0.8853182233728549
 30
0.0
 40
0.0708670997759799
100
AcDbArc
 50
182.6223267090676
 51
269.9032998648108
  0
ARC
  5
203A8
330
20392
100
AcDbEntity
  8
0
 62
     0
100
AcDbCircle
 10
4.810208883744789
 20
0.885318223372854
 30
0.0
 40
0.0708670997759791
100
AcDbArc
 50
270.0967001351884
 51
357.3776732909305
  0
ARC
  5
203A9
330
20392
100
AcDbEntity
  8
0
 62
     0
100
AcDbCircle
 10
5.157130718943218
 20
0.8853182233728549
 30
0.0
 40
0.0708670997759799
100
AcDbArc
 50
182.6223267090676
 51
269.9032998648108
  0
LINE
  5
203AA
330
20392
100
AcDbEntity
  8
0
 62
     0
100
AcDbLine
 10
5.15701111406248
 20
0.8144512245276152
 30
0.0
 11
5.273363896669107
 21
0.8144512245276152
 31
0.0
  0
ENDBLK
  5
203AC
330
20392
100
AcDbEntity
  8
0
100
AcDbBlockEnd
  0
BLOCK
  5
20427
330
20414
100
AcDbEntity
  8
0
100
AcDbBlockBegin
  2
GH100
 70
     0
 10
0.0
 20
0.0
 30
0.0
  3
GH100
  1
GH100
  0
LINE
  5
20415
330
20414
100
AcDbEntity
  8
0
  6
BYBLOCK
 62
     0
100
AcDbLine
 10
5.611332214039963
 20
-0.1386975872860543
 30
0.0
 11
6.736332214039963
 21
-0.1386975872860547
 31
0.0
  0
LINE
  5
20416
330
20414
100
AcDbEntity
  8
0
  6
BYBLOCK
 62
     0
100
AcDbLine
 10
5.611332214039963
 20
0.3398879725095947
 30
0.0
 11
5.611332214039963
 21
-0.1386975872860541
 31
0.0
  0
LINE
  5
20417
330
20414
100
AcDbEntity
  8
0
  6
BYBLOCK
 62
     0
100
AcDbLine
 10
5.611332214039963
 20
0.3398879725095952
 30
0.0
 11
5.736332214039963
 21
0.4648879725095961
 31
0.0
  0
LINE
  5
20418
330
20414
100
AcDbEntity
  8
0
  6
BYBLOCK
 62
     0
100
AcDbLine
 10
5.611332214039964
 20
3.423802412713946
 30
0.0
 11
5.744559566876942
 21
3.423802412713946
 31
0.0
  0
LINE
  5
20419
330
20414
100
AcDbEntity
  8
0
  6
BYBLOCK
 62
     0
100
AcDbLine
 10
6.072107126582533
 20
3.130095266030923
 30
0.0
 11
6.072107126582533
 21
3.018650407231753
 31
0.0
  0
LINE
  5
2041A
330
20414
100
AcDbEntity
  8
0
  6
BYBLOCK
 62
     0
100
AcDbLine
 10
5.611332214039964
 20
3.423802412713946
 30
0.0
 11
5.611332214039964
 21
2.878003282559518
 31
0.0
  0
LINE
  5
2041B
330
20414
100
AcDbEntity
  8
0
  6
BYBLOCK
 62
     0
100
AcDbLine
 10
5.956343281934791
 20
3.199408656565403
 30
0.0
 11
5.998072759177478
 21
3.199408656565403
 31
0.0
  0
ARC
  5
2041C
330
20414
100
AcDbEntity
  8
0
  6
BYBLOCK
 62
     0
100
AcDbCircle
 10
5.968859208968252
 20
3.311055850725539
 30
0.0
 40
0.1123465370776431
100
AcDbArc
 50
227.7553913292559
 51
263.6037059820222
  0
LINE
  5
2041D
330
20414
100
AcDbEntity
  8
0
  6
BYBLOCK
 62
     0
100
AcDbLine
 10
6.736332214039964
 20
-0.1386975872860545
 30
0.0
 11
6.736332214039964
 21
0.3212992512078136
 31
0.0
  0
ARC
  5
2041E
330
20414
100
AcDbEntity
  8
0
  6
BYBLOCK
 62
     0
100
AcDbCircle
 10
5.994007427922026
 20
3.12087129144679
 30
0.0
 40
0.0786425116459968
100
AcDbArc
 50
6.735722327539187
 51
87.03684199676779
  0
LINE
  5
2041F
330
20414
100
AcDbEntity
  8
0
  6
BYBLOCK
 62
     0
100
AcDbLine
 10
5.744559566876942
 20
3.423802412713946
 30
0.0
 11
5.893328951990676
 21
3.227887799923326
 31
0.0
  0
LINE
  5
20420
330
20414
100
AcDbEntity
  8
0
  6
BYBLOCK
 62
     0
100
AcDbLine
 10
6.485727411487658
 20
0.5374198083066615
 30
0.0
 11
6.485727411487658
 21
0.3212992512078135
 31
0.0
  0
LINE
  5
20421
330
20414
100
AcDbEntity
  8
0
  6
BYBLOCK
 62
     0
100
AcDbLine
 10
5.736332214039964
 20
2.753003282559518
 30
0.0
 11
5.736332214039963
 21
0.4648879725095951
 31
0.0
  0
LINE
  5
20422
330
20414
100
AcDbEntity
  8
0
  6
BYBLOCK
 62
     0
100
AcDbLine
 10
6.485727411487658
 20
0.3212992512078136
 30
0.0
 11
6.736332214039964
 21
0.3212992512078136
 31
0.0
  0
ARC
  5
20423
330
20414
100
AcDbEntity
  8
0
  6
BYBLOCK
 62
     0
100
AcDbCircle
 10
5.540997266429388
 20
1.253587186297033
 30
0.0
 40
1.185500215216945
100
AcDbArc
 50
322.8354874504303
 51
62.89836797342138
  0
ARC
  5
20424
330
20414
100
AcDbEntity
  8
0
  6
BYBLOCK
 62
     0
100
AcDbCircle
 10
6.046121042985168
 20
2.720139572444094
 30
0.0
 40
0.2996397754410365
100
AcDbArc
 50
276.6991675174457
 51
85.0248073136456
  0
LINE
  5
20425
330
20414
100
AcDbEntity
  8
0
  6
BYBLOCK
 62
     0
100
AcDbLine
 10
6.081075912544402
 20
2.422545634131413
 30
0.0
 11
6.081075912544402
 21
2.308919274452225
 31
0.0
  0
LINE
  5
20426
330
20414
100
AcDbEntity
  8
0
  6
BYBLOCK
 62
     0
100
AcDbLine
 10
5.611332214039964
 20
2.878003282559518
 30
0.0
 11
5.736332214039964
 21
2.753003282559518
 31
0.0
  0
ENDBLK
  5
20428
330
20414
100
AcDbEntity
  8
0
100
AcDbBlockEnd
  0
ENDSEC
  0
SECTION
  2
ENTITIES
  0
INSERT
  5
2032A
330
1F
100
AcDbEntity
  8
0
 62
     0
100
AcDbBlockReference
  2
TEXT
 10
0.0164741136207667
 20
0.0
 30
0.0
  0
INSERT
  5
20429
330
1F
100
AcDbEntity
  8
0
  6
BYBLOCK
 62
     0
100
AcDbBlockReference
  2
GH100
 10
-5.611332214039963
 20
0.1387431470536435
 30
0.0
  0
VIEWPORT
  5
200AE
330
1E
100
AcDbEntity
 67
     1
  8
0
100
AcDbViewport
 10
0.0
 20
0.0
 30
0.0
 40
528.5751785646901
 41
373.7781619850308
 68
     1
 69
     1
1001
ACAD
1000
MVIEW
1002
{
1070
    16
1010
0.0
1020
0.0
1030
0.0
1010
0.0
1020
0.0
1030
1.0
1040
0.0
1040
373.7781619850308
1040
377.6870091085629
1040
217.3945662404915
1040
50.0
1040
0.0
1040
0.0
1070
    16
1070
   100
1070
     0
1070
     3
1070
     0
1070
     0
1070
     0
1070
     0
1040
0.0
1040
0.0
1040
0.0
1040
0.5
1040
0.5
1040
0.0
1040
0.0
1070
     0
1002
{
1002
}
1002
}
  0
VIEWPORT
  5
200AF
330
1E
100
AcDbEntity
 67
     1
  8
0
100
AcDbViewport
 10
220.2238925492625
 20
217.3945662404915
 30
0.0
 40
184.7771919950767
 41
317.0957537141114
 68
     2
 69
     2
1001
ACAD
1000
MVIEW
1002
{
1070
    16
1010
0.0
1020
0.0
1030
0.0
1010
0.0
1020
0.0
1030
1.0
1040
0.0
1040
3.727044944008347
1040
1.004381454510192
1040
1.775571700881714
1040
50.0
1040
0.0
1040
0.0
1070
     0
1070
   100
1070
     0
1070
     3
1070
     0
1070
     0
1070
     0
1070
     0
1040
0.0
1040
0.0
1040
0.0
1040
0.5
1040
0.5
1040
0.0
1040
0.0
1070
     0
1002
{
1002
}
1002
}
  0
ENDSEC
  0
SECTION
  2
OBJECTS
  0
DICTIONARY
  5
C
330
0
100
AcDbDictionary
  3
ACAD_DETAILVIEWSTYLE
350
200A3
  3
ACAD_GROUP
350
D
  3
ACAD_IMAGE_DICT
350
202AE
  3
ACAD_IMAGE_VARS
350
20048
  3
ACAD_MLINESTYLE
350
20000
  3
ACAD_SCALELIST
350
20451
  3
ACAD_SECTIONVIEWSTYLE
350
200A4
  3
ACDBVARIABLEDICTIONARY
350
200B8
  3
APPDATA
350
20046
  3
DWGPROPS
350
204AA
  0
DICTIONARY
  5
200A3
102
{ACAD_REACTORS
330
C
102
}
330
C
100
AcDbDictionary
  0
DICTIONARY
  5
D
330
C
100
AcDbDictionary
  0
DICTIONARY
  5
202AE
102
{ACAD_REACTORS
330
C
102
}
330
C
100
AcDbDictionary
  3
GH100
350
203FC
  3
GH201
350
202AF
  3
GH850
350
20375
  0
RASTERVARIABLES
  5
20048
102
{ACAD_REACTORS
330
C
102
}
330
C
100
AcDbRasterVariables
 90
        0
 70
     1
 71
     1
 72
     5
  0
DICTIONARY
  5
20000
102
{ACAD_REACTORS
330
C
102
}
330
C
100
AcDbDictionary
  3
STANDARD
350
20001
  0
DICTIONARY
  5
20451
102
{ACAD_REACTORS
330
C
102
}
330
C
100
AcDbDictionary
  0
DICTIONARY
  5
200A4
102
{ACAD_REACTORS
330
C
102
}
330
C
100
AcDbDictionary
  0
DICTIONARY
  5
200B8
102
{ACAD_REACTORS
330
C
102
}
330
C
100
AcDbDictionary
  0
DICTIONARY
  5
20046
102
{ACAD_REACTORS
330
C
102
}
330
C
100
AcDbDictionary
  0
XRECORD
  5
204AA
102
{ACAD_REACTORS
330
C
102
}
330
C
100
AcDbXrecord
  1
DWGPROPS COOKIE
  2

  3

  4

  6

  7

  8
Germanos1
  9

300
=
301
=
302
=
303
=
304
=
305
=
306
=
307
=
308
=
309
=
 40
0.0
 41
2447892.999999988
 42
2457370.665181875
  1

 90
        0
  0
IMAGEDEF
  5
203FC
102
{ACAD_REACTORS
330
202AE
102
}
330
202AE
100
AcDbRasterImageDef
 90
        0
  1
C:/US, Detroit, Michigan/General Hardwood Company/Moulding Catalog/Casing/Origin/GH100.jpg
 10
122.0
 20
367.0
 11
0.00819672131147541
 21
0.00819672131147541
280
     1
281
     0
  0
IMAGEDEF
  5
202AF
102
{ACAD_REACTORS
330
202AE
102
}
330
202AE
100
AcDbRasterImageDef
 90
        0
  1
C:/US, Detroit, Michigan/General Hardwood Company/Moulding Catalog/Base/Origin/GH201.jpg
 10
112.0
 20
448.0
 11
0.008928571428571428
 21
0.008928571428571428
280
     1
281
     0
  0
IMAGEDEF
  5
20375
102
{ACAD_REACTORS
330
202AE
102
}
330
202AE
100
AcDbRasterImageDef
 90
        0
  1
C:/US, Detroit, Michigan/General Hardwood Company/Moulding Catalog/Base Cap/Origin/GH850.jpg
 10
80.0
 20
284.0
 11
0.0125
 21
0.0125
280
     1
281
     0
  0
MLINESTYLE
  5
20001
102
{ACAD_REACTORS
330
20000
102
}
330
20000
100
AcDbMlineStyle
  2
Standard
 70
     0
  3

 62
   256
 51
90.0
 52
90.0
 71
     2
 49
0.5
 62
   256
  6
BYLAYER
 49
-0.5
 62
   256
  6
BYLAYER
  0
ENDSEC
  0
EOF
